  0
SECTION
  2
HEADER
  9
$ACADVER
  1
AC1015
  9
$ACADMAINTVER
 70
     6
  9
$DWGCODEPAGE
  3
ANSI_1254
  9
$INSBASE
 10
0.0
 20
0.0
 30
0.0
  9
$EXTMIN
 10
0.0
 20
0.0
 30
0.0
  9
$EXTMAX
 10
279.4
 20
215.9
 30
0.0
  9
$LIMMIN
 10
0.0
 20
0.0
  9
$LIMMAX
 10
279.4
 20
215.9
  9
$ORTHOMODE
 70
     0
  9
$REGENMODE
 70
     1
  9
$FILLMODE
 70
     1
  9
$QTEXTMODE
 70
     0
  9
$MIRRTEXT
 70
     1
  9
$LTSCALE
 40
1.0
  9
$ATTMODE
 70
     1
  9
$TEXTSIZE
 40
3.5
  9
$TRACEWID
 40
1.0
  9
$TEXTSTYLE
  7
Standard
  9
$CLAYER
  8
0
  9
$CELTYPE
  6
ByLayer
  9
$CECOLOR
 62
   256
  9
$CELTSCALE
 40
1.0
  9
$DISPSILH
 70
     0
  9
$DIMSCALE
 40
1.0
  9
$DIMASZ
 40
3.5
  9
$DIMEXO
 40
1.0
  9
$DIMDLI
 40
3.75
  9
$DIMRND
 40
0.0
  9
$DIMDLE
 40
0.0
  9
$DIMEXE
 40
1.0
  9
$DIMTP
 40
0.0
  9
$DIMTM
 40
0.0
  9
$DIMTXT
 40
3.5
  9
$DIMCEN
 40
2.5
  9
$DIMTSZ
 40
0.0
  9
$DIMTOL
 70
     0
  9
$DIMLIM
 70
     0
  9
$DIMTIH
 70
     1
  9
$DIMTOH
 70
     1
  9
$DIMSE1
 70
     0
  9
$DIMSE2
 70
     0
  9
$DIMTAD
 70
     1
  9
$DIMZIN
 70
     0
  9
$DIMBLK
  1

  9
$DIMASO
 70
     1
  9
$DIMSHO
 70
     1
  9
$DIMPOST
  1

  9
$DIMAPOST
  1

  9
$DIMALT
 70
     0
  9
$DIMALTD
 70
     3
  9
$DIMALTF
 40
0.0393700787
  9
$DIMLFAC
 40
1.0
  9
$DIMTOFL
 70
     1
  9
$DIMTVP
 40
0.0
  9
$DIMTIX
 70
     0
  9
$DIMSOXD
 70
     0
  9
$DIMSAH
 70
     0
  9
$DIMBLK1
  1

  9
$DIMBLK2
  1

  9
$DIMSTYLE
  2
ISO-25
  9
$DIMCLRD
 70
     0
  9
$DIMCLRE
 70
     0
  9
$DIMCLRT
 70
     0
  9
$DIMTFAC
 40
1.0
  9
$DIMGAP
 40
1.524
  9
$DIMJUST
 70
     0
  9
$DIMSD1
 70
     0
  9
$DIMSD2
 70
     0
  9
$DIMTOLJ
 70
     0
  9
$DIMTZIN
 70
     0
  9
$DIMALTZ
 70
     0
  9
$DIMALTTZ
 70
     0
  9
$DIMUPT
 70
     0
  9
$DIMDEC
 70
     2
  9
$DIMTDEC
 70
     2
  9
$DIMALTU
 70
     2
  9
$DIMALTTD
 70
     3
  9
$DIMTXSTY
  7
Standard
  9
$DIMAUNIT
 70
     0
  9
$DIMADEC
 70
     2
  9
$DIMALTRND
 40
0.0
  9
$DIMAZIN
 70
     0
  9
$DIMDSEP
 70
    44
  9
$DIMATFIT
 70
     3
  9
$DIMFRAC
 70
     0
  9
$DIMLDRBLK
  1

  9
$DIMLUNIT
 70
     2
  9
$DIMLWD
 70
    -2
  9
$DIMLWE
 70
    -2
  9
$DIMTMOVE
 70
     0
  9
$LUNITS
 70
     2
  9
$LUPREC
 70
     2
  9
$SKETCHINC
 40
1.0
  9
$FILLETRAD
 40
10.0
  9
$AUNITS
 70
     0
  9
$AUPREC
 70
     2
  9
$MENU
  1
.
  9
$ELEVATION
 40
0.0
  9
$PELEVATION
 40
0.0
  9
$THICKNESS
 40
0.0
  9
$LIMCHECK
 70
     0
  9
$CHAMFERA
 40
0.0
  9
$CHAMFERB
 40
0.0
  9
$CHAMFERC
 40
0.0
  9
$CHAMFERD
 40
0.0
  9
$SKPOLY
 70
     0
  9
$TDCREATE
 40
2460665.614674665
  9
$TDUCREATE
 40
2460665.489674665
  9
$TDUPDATE
 40
2460665.614674965
  9
$TDUUPDATE
 40
2460665.489674965
  9
$TDINDWG
 40
0.0000000116
  9
$TDUSRTIMER
 40
0.0000000116
  9
$USRTIMER
 70
     1
  9
$ANGBASE
 50
0.0
  9
$ANGDIR
 70
     0
  9
$PDMODE
 70
     0
  9
$PDSIZE
 40
-1.0
  9
$PLINEWID
 40
0.0
  9
$SPLFRAME
 70
     0
  9
$SPLINETYPE
 70
     6
  9
$SPLINESEGS
 70
     8
  9
$HANDSEED
  5
121
  9
$SURFTAB1
 70
     6
  9
$SURFTAB2
 70
     6
  9
$SURFTYPE
 70
     6
  9
$SURFU
 70
     6
  9
$SURFV
 70
     6
  9
$UCSBASE
  2

  9
$UCSNAME
  2

  9
$UCSORG
 10
0.0
 20
0.0
 30
0.0
  9
$UCSXDIR
 10
1.0
 20
0.0
 30
0.0
  9
$UCSYDIR
 10
0.0
 20
1.0
 30
0.0
  9
$UCSORTHOREF
  2

  9
$UCSORTHOVIEW
 70
     0
  9
$UCSORGTOP
 10
0.0
 20
0.0
 30
0.0
  9
$UCSORGBOTTOM
 10
0.0
 20
0.0
 30
0.0
  9
$UCSORGLEFT
 10
0.0
 20
0.0
 30
0.0
  9
$UCSORGRIGHT
 10
0.0
 20
0.0
 30
0.0
  9
$UCSORGFRONT
 10
0.0
 20
0.0
 30
0.0
  9
$UCSORGBACK
 10
0.0
 20
0.0
 30
0.0
  9
$PUCSBASE
  2

  9
$PUCSNAME
  2

  9
$PUCSORG
 10
0.0
 20
0.0
 30
0.0
  9
$PUCSXDIR
 10
1.0
 20
0.0
 30
0.0
  9
$PUCSYDIR
 10
0.0
 20
1.0
 30
0.0
  9
$PUCSORTHOREF
  2

  9
$PUCSORTHOVIEW
 70
     0
  9
$PUCSORGTOP
 10
0.0
 20
0.0
 30
0.0
  9
$PUCSORGBOTTOM
 10
0.0
 20
0.0
 30
0.0
  9
$PUCSORGLEFT
 10
0.0
 20
0.0
 30
0.0
  9
$PUCSORGRIGHT
 10
0.0
 20
0.0
 30
0.0
  9
$PUCSORGFRONT
 10
0.0
 20
0.0
 30
0.0
  9
$PUCSORGBACK
 10
0.0
 20
0.0
 30
0.0
  9
$USERI1
 70
     0
  9
$USERI2
 70
     0
  9
$USERI3
 70
     0
  9
$USERI4
 70
     0
  9
$USERI5
 70
     0
  9
$USERR1
 40
0.0
  9
$USERR2
 40
0.0
  9
$USERR3
 40
0.0
  9
$USERR4
 40
0.0
  9
$USERR5
 40
0.0
  9
$WORLDVIEW
 70
     1
  9
$SHADEDGE
 70
     3
  9
$SHADEDIF
 70
    70
  9
$TILEMODE
 70
     1
  9
$MAXACTVP
 70
    64
  9
$PINSBASE
 10
0.0
 20
0.0
 30
0.0
  9
$PLIMCHECK
 70
     0
  9
$PEXTMIN
 10
1.0000000000E+20
 20
1.0000000000E+20
 30
1.0000000000E+20
  9
$PEXTMAX
 10
-1.0000000000E+20
 20
-1.0000000000E+20
 30
-1.0000000000E+20
  9
$PLIMMIN
 10
0.0
 20
0.0
  9
$PLIMMAX
 10
420.0
 20
297.0
  9
$UNITMODE
 70
     0
  9
$VISRETAIN
 70
     1
  9
$PLINEGEN
 70
     0
  9
$PSLTSCALE
 70
     1
  9
$TREEDEPTH
 70
  3020
  9
$CMLSTYLE
  2
Standard
  9
$CMLJUST
 70
     0
  9
$CMLSCALE
 40
20.0
  9
$PROXYGRAPHICS
 70
     1
  9
$MEASUREMENT
 70
     1
  9
$CELWEIGHT
370
    -1
  9
$ENDCAPS
280
     0
  9
$JOINSTYLE
280
     0
  9
$LWDISPLAY
290
     1
  9
$INSUNITS
 70
     4
  9
$HYPERLINKBASE
  1

  9
$STYLESHEET
  1

  9
$XEDIT
290
     1
  9
$CEPSNTYPE
380
     0
  9
$PSTYLEMODE
290
     1
  9
$FINGERPRINTGUID
  2
{ca997861-33aa-4c59-84aa-c68d59c5f8b3}
  9
$VERSIONGUID
  2
{FAEB1C32-E019-11D5-929B-00C0DF256EC4}
  9
$EXTNAMES
290
     1
  9
$PSVPSCALE
 40
0.0
  9
$OLESTARTUP
290
     0
  0
ENDSEC
  0
SECTION
  2
CLASSES
  0
CLASS
  1
ACDBDICTIONARYWDFLT
  2
AcDbDictionaryWithDefault
  3
ObjectDBX Classes
 90
        0
280
     0
281
     0
  0
CLASS
  1
VISUALSTYLE
  2
AcDbVisualStyle
  3
ObjectDBX Classes
 90
     4095
280
     0
281
     0
  0
CLASS
  1
MATERIAL
  2
AcDbMaterial
  3
ObjectDBX Classes
 90
     1153
280
     0
281
     0
  0
CLASS
  1
SCALE
  2
AcDbScale
  3
ObjectDBX Classes
 90
     1153
280
     0
281
     0
  0
CLASS
  1
TABLESTYLE
  2
AcDbTableStyle
  3
ObjectDBX Classes
 90
     4095
280
     0
281
     0
  0
CLASS
  1
MLEADERSTYLE
  2
AcDbMLeaderStyle
  3
ACDB_MLEADERSTYLE_CLASS
 90
     4095
280
     0
281
     0
  0
CLASS
  1
SUN
  2
AcDbSun
  3
SCENEOE
 90
     1153
280
     0
281
     0
  0
CLASS
  1
ACDBPLACEHOLDER
  2
AcDbPlaceHolder
  3
ObjectDBX Classes
 90
        0
280
     0
281
     0
  0
CLASS
  1
LAYOUT
  2
AcDbLayout
  3
ObjectDBX Classes
 90
        0
280
     0
281
     0
  0
ENDSEC
  0
SECTION
  2
TABLES
  0
TABLE
  2
VPORT
  5
8
330
0
100
AcDbSymbolTable
 70
     1
  0
VPORT
  5
29
330
8
100
AcDbSymbolTableRecord
100
AcDbViewportTableRecord
  2
*Active
 70
     0
 10
0.0
 20
0.0
 11
1.0
 21
1.0
 12
139.7
 22
107.95
 13
0.0
 23
0.0
 14
10.0
 24
10.0
 15
10.0
 25
10.0
 16
0.0
 26
0.0
 36
1.0
 17
0.0
 27
0.0
 37
0.0
 40
215.9
 41
1.2941176471
 42
50.0
 43
0.0
 44
0.0
 50
0.0
 51
0.0
 71
     0
 72
  2000
 73
     1
 74
     3
 75
     0
 76
     0
 77
     0
 78
     0
281
     0
 65
     1
110
0.0
120
0.0
130
0.0
111
1.0
121
0.0
131
0.0
112
0.0
122
1.0
132
0.0
 79
     0
146
0.0
  0
ENDTAB
  0
TABLE
  2
LTYPE
  5
5
330
0
100
AcDbSymbolTable
 70
     6
  0
LTYPE
  5
14
330
5
100
AcDbSymbolTableRecord
100
AcDbLinetypeTableRecord
  2
ByBlock
 70
     0
  3

 72
    65
 73
     0
 40
0.0
  0
LTYPE
  5
15
330
5
100
AcDbSymbolTableRecord
100
AcDbLinetypeTableRecord
  2
ByLayer
 70
     0
  3

 72
    65
 73
     0
 40
0.0
  0
LTYPE
  5
16
330
5
100
AcDbSymbolTableRecord
100
AcDbLinetypeTableRecord
  2
Continuous
 70
     0
  3
Solid line
 72
    65
 73
     0
 40
0.0
  0
LTYPE
  5
6E
330
5
100
AcDbSymbolTableRecord
100
AcDbLinetypeTableRecord
  2
HIDDEN
 70
     0
  3
Hidden __ __ __ __ __ __ __ __ __ __ __ __ __ __
 72
    65
 73
     2
 40
1.905
 49
1.27
 74
     0
 49
-0.635
 74
     0
  0
LTYPE
  5
6F
330
5
100
AcDbSymbolTableRecord
100
AcDbLinetypeTableRecord
  2
PHANTOM
 70
     0
  3
Phantom ______  __  __  ______  __  __  ______
 72
    65
 73
     6
 40
12.7
 49
6.35
 74
     0
 49
-1.27
 74
     0
 49
1.27
 74
     0
 49
-1.27
 74
     0
 49
1.27
 74
     0
 49
-1.27
 74
     0
  0
LTYPE
  5
70
330
5
100
AcDbSymbolTableRecord
100
AcDbLinetypeTableRecord
  2
CENTER
 70
     0
  3
Center ____ _ ____ _ ____ _ ____ _ ____ _ ____
 72
    65
 73
     4
 40
10.16
 49
6.35
 74
     0
 49
-1.27
 74
     0
 49
1.27
 74
     0
 49
-1.27
 74
     0
  0
LTYPE
  5
71
330
5
100
AcDbSymbolTableRecord
100
AcDbLinetypeTableRecord
  2
CENTERX2
 70
     0
  3
Center (2x) ________  __  ________  __  _____
 72
    65
 73
     4
 40
20.32
 49
12.7
 74
     0
 49
-2.54
 74
     0
 49
2.54
 74
     0
 49
-2.54
 74
     0
  0
LTYPE
  5
72
330
5
100
AcDbSymbolTableRecord
100
AcDbLinetypeTableRecord
  2
DOT2
 70
     0
  3
Dot (.5x) ........................................
 72
    65
 73
     2
 40
0.635
 49
0.0
 74
     0
 49
-0.635
 74
     0
  0
ENDTAB
  0
TABLE
  2
LAYER
  5
2
330
0
100
AcDbSymbolTable
 70
    17
  0
LAYER
  5
10
330
2
100
AcDbSymbolTableRecord
100
AcDbLayerTableRecord
  2
0
 70
     0
 62
     7
  6
Continuous
370
    -3
390
F
  0
LAYER
  5
73
330
2
100
AcDbSymbolTableRecord
100
AcDbLayerTableRecord
  2
FORMAT
 70
     0
 62
     7
  6
Continuous
370
    -3
390
F
  0
LAYER
  5
74
330
2
100
AcDbSymbolTableRecord
100
AcDbLayerTableRecord
  2
YARDIMCI_GEOMETRI
 70
     0
 62
    -6
  6
Continuous
290
     0
370
    -3
390
F
  0
LAYER
  5
75
330
2
100
AcDbSymbolTableRecord
100
AcDbLayerTableRecord
  2
SAYFA_CERCEVESI
 70
     0
 62
     7
  6
Continuous
370
    25
390
F
  0
LAYER
  5
76
330
2
100
AcDbSymbolTableRecord
100
AcDbLayerTableRecord
  2
ANTET
 70
     0
 62
     7
  6
Continuous
370
    -3
390
F
  0
LAYER
  5
77
330
2
100
AcDbSymbolTableRecord
100
AcDbLayerTableRecord
  2
OLCU
 70
     0
 62
   150
  6
Continuous
370
    -3
390
F
  0
LAYER
  5
78
330
2
100
AcDbSymbolTableRecord
100
AcDbLayerTableRecord
  2
METIN
 70
     0
 62
    96
  6
Continuous
370
    -3
390
F
  0
LAYER
  5
79
330
2
100
AcDbSymbolTableRecord
100
AcDbLayerTableRecord
  2
BALON
 70
     0
 62
     5
  6
Continuous
370
    -3
390
F
  0
LAYER
  5
7A
330
2
100
AcDbSymbolTableRecord
100
AcDbLayerTableRecord
  2
VURGU
 70
     0
 62
     7
  6
Continuous
370
    -3
390
F
  0
LAYER
  5
7B
330
2
100
AcDbSymbolTableRecord
100
AcDbLayerTableRecord
  2
SILIK
 70
     0
 62
     7
  6
Continuous
370
    -3
390
F
  0
LAYER
  5
7C
330
2
100
AcDbSymbolTableRecord
100
AcDbLayerTableRecord
  2
MODEL
 70
     0
 62
     7
  6
Continuous
370
    -3
390
F
  0
LAYER
  5
7D
330
2
100
AcDbSymbolTableRecord
100
AcDbLayerTableRecord
  2
DETAYLANDıRMA
 70
     0
 62
   190
  6
Continuous
370
    -3
390
F
  0
LAYER
  5
7E
330
2
100
AcDbSymbolTableRecord
100
AcDbLayerTableRecord
  2
TOLERANS
 70
     0
 62
   230
  6
Continuous
370
    -3
390
F
  0
LAYER
  5
7F
330
2
100
AcDbSymbolTableRecord
100
AcDbLayerTableRecord
  2
MERKEZ_CIZGILERI
 70
     0
 62
    30
  6
Continuous
370
    -3
390
F
  0
LAYER
  5
80
330
2
100
AcDbSymbolTableRecord
100
AcDbLayerTableRecord
  2
KESIT-DETAY_CIZGILERI
 70
     0
 62
     7
  6
Continuous
370
    -3
390
F
  0
LAYER
  5
81
330
2
100
AcDbSymbolTableRecord
100
AcDbLayerTableRecord
  2
\U+041E\U+0421\U+0415\U+0412\U+042B\U+0415
 70
     0
 62
     7
  6
Continuous
370
    -3
390
F
  0
LAYER
  5
82
330
2
100
AcDbSymbolTableRecord
100
AcDbLayerTableRecord
  2
\U+0412\U+041E\U+0414\U+042F\U+041D\U+042B\U+0415_\U+0417\U+041D\U+0410\U+041A\U+0418
 70
     0
 62
    11
  6
Continuous
370
    -3
390
F
  0
ENDTAB
  0
TABLE
  2
STYLE
  5
3
330
0
100
AcDbSymbolTable
 70
     1
  0
STYLE
  5
11
330
3
100
AcDbSymbolTableRecord
100
AcDbTextStyleTableRecord
  2
Standard
 70
     0
 40
0.0
 41
1.0
 50
0.0
 71
     0
 42
3.5
  3
txt
  4

  0
ENDTAB
  0
TABLE
  2
VIEW
  5
6
330
0
100
AcDbSymbolTable
 70
     0
  0
ENDTAB
  0
TABLE
  2
UCS
  5
7
330
0
100
AcDbSymbolTable
 70
     0
  0
ENDTAB
  0
TABLE
  2
APPID
  5
9
330
0
100
AcDbSymbolTable
 70
     1
  0
APPID
  5
12
330
9
100
AcDbSymbolTableRecord
100
AcDbRegAppTableRecord
  2
ACAD
 70
     0
  0
ENDTAB
  0
TABLE
  2
DIMSTYLE
  5
A
330
0
100
AcDbSymbolTable
 70
     1
100
AcDbDimStyleTable
  0
DIMSTYLE
105
27
330
A
100
AcDbSymbolTableRecord
100
AcDbDimStyleTableRecord
  2
ISO-25
 70
     0
 41
2.5
 42
0.625
 43
3.75
 44
1.25
 73
     0
 74
     0
 77
     1
 78
     8
140
2.5
141
2.5
143
0.0393700787
147
0.625
171
     3
172
     1
178
     0
271
     2
272
     2
274
     3
278
    44
283
     0
284
     8
340
11
  0
ENDTAB
  0
TABLE
  2
BLOCK_RECORD
  5
1
330
0
100
AcDbSymbolTable
 70
     5
  0
BLOCK_RECORD
  5
1F
330
1
100
AcDbSymbolTableRecord
100
AcDbBlockTableRecord
  2
*Model_Space
340
22
  0
BLOCK_RECORD
  5
1B
330
1
100
AcDbSymbolTableRecord
100
AcDbBlockTableRecord
  2
*Paper_Space
340
1E
  0
BLOCK_RECORD
  5
23
330
1
100
AcDbSymbolTableRecord
100
AcDbBlockTableRecord
  2
*Paper_Space0
340
26
  0
BLOCK_RECORD
  5
A5
330
1
100
AcDbSymbolTableRecord
100
AcDbBlockTableRecord
  2
SW_CENTERMARKSYMBOL_0
340
0
102
{BLKREFS
331
B0
102
}
  0
BLOCK_RECORD
  5
C1
330
1
100
AcDbSymbolTableRecord
100
AcDbBlockTableRecord
  2
SW_CENTERMARKSYMBOL_1
340
0
102
{BLKREFS
331
CC
102
}
  0
BLOCK_RECORD
  5
DE
330
1
100
AcDbSymbolTableRecord
100
AcDbBlockTableRecord
  2
SW_CENTERMARKSYMBOL_2
340
0
102
{BLKREFS
331
E9
102
}
  0
BLOCK_RECORD
  5
F9
330
1
100
AcDbSymbolTableRecord
100
AcDbBlockTableRecord
  2
SW_CENTERMARKSYMBOL_3
340
0
102
{BLKREFS
331
104
102
}
  0
ENDTAB
  0
ENDSEC
  0
SECTION
  2
BLOCKS
  0
BLOCK
  5
20
330
1F
100
AcDbEntity
  8
0
100
AcDbBlockBegin
  2
*Model_Space
 70
     0
 10
0.0
 20
0.0
 30
0.0
  3
*Model_Space
  1

  0
ENDBLK
  5
21
330
1F
100
AcDbEntity
  8
0
100
AcDbBlockEnd
  0
BLOCK
  5
1C
330
1B
100
AcDbEntity
 67
     1
  8
0
100
AcDbBlockBegin
  2
*Paper_Space
 70
     0
 10
0.0
 20
0.0
 30
0.0
  3
*Paper_Space
  1

  0
ENDBLK
  5
1D
330
1B
100
AcDbEntity
 67
     1
  8
0
100
AcDbBlockEnd
  0
BLOCK
  5
24
330
23
100
AcDbEntity
  8
0
100
AcDbBlockBegin
  2
*Paper_Space0
 70
     0
 10
0.0
 20
0.0
 30
0.0
  3
*Paper_Space0
  1

  0
ENDBLK
  5
25
330
23
100
AcDbEntity
  8
0
100
AcDbBlockEnd
  0
BLOCK
  5
A6
330
A5
100
AcDbEntity
  8
0
100
AcDbBlockBegin
  2
SW_CENTERMARKSYMBOL_0
 70
     0
 10
0.0
 20
0.0
 30
0.0
  3
SW_CENTERMARKSYMBOL_0
  1

  0
LINE
  5
A8
330
A5
100
AcDbEntity
  8
FORMAT
 62
     0
100
AcDbLine
 10
0.0
 20
0.0
 30
0.0
 11
0.0
 21
2.5
 31
0.0
  0
LINE
  5
A9
330
A5
100
AcDbEntity
  8
FORMAT
 62
     0
100
AcDbLine
 10
0.0
 20
0.0
 30
0.0
 11
-2.5
 21
0.0
 31
0.0
  0
LINE
  5
AA
330
A5
100
AcDbEntity
  8
FORMAT
 62
     0
100
AcDbLine
 10
0.0
 20
0.0
 30
0.0
 11
0.0
 21
-2.5
 31
0.0
  0
LINE
  5
AB
330
A5
100
AcDbEntity
  8
FORMAT
 62
     0
100
AcDbLine
 10
0.0
 20
0.0
 30
0.0
 11
2.5
 21
0.0
 31
0.0
  0
LINE
  5
AC
330
A5
100
AcDbEntity
  8
FORMAT
 62
     0
100
AcDbLine
 10
0.0
 20
5.0
 30
0.0
 11
0.0
 21
103.0
 31
0.0
  0
LINE
  5
AD
330
A5
100
AcDbEntity
  8
FORMAT
 62
     0
100
AcDbLine
 10
-5.0
 20
0.0
 30
0.0
 11
-103.0
 21
0.0
 31
0.0
  0
LINE
  5
AE
330
A5
100
AcDbEntity
  8
FORMAT
 62
     0
100
AcDbLine
 10
0.0
 20
-5.0
 30
0.0
 11
0.0
 21
-103.0
 31
0.0
  0
LINE
  5
AF
330
A5
100
AcDbEntity
  8
FORMAT
 62
     0
100
AcDbLine
 10
5.0
 20
0.0
 30
0.0
 11
103.0
 21
0.0
 31
0.0
  0
ENDBLK
  5
A7
330
A5
100
AcDbEntity
  8
0
100
AcDbBlockEnd
  0
BLOCK
  5
C2
330
C1
100
AcDbEntity
  8
0
100
AcDbBlockBegin
  2
SW_CENTERMARKSYMBOL_1
 70
     0
 10
0.0
 20
0.0
 30
0.0
  3
SW_CENTERMARKSYMBOL_1
  1

  0
LINE
  5
C4
330
C1
100
AcDbEntity
  8
FORMAT
 62
     0
100
AcDbLine
 10
0.0
 20
0.0
 30
0.0
 11
0.0
 21
2.5
 31
0.0
  0
LINE
  5
C5
330
C1
100
AcDbEntity
  8
FORMAT
 62
     0
100
AcDbLine
 10
0.0
 20
0.0
 30
0.0
 11
-2.5
 21
0.0
 31
0.0
  0
LINE
  5
C6
330
C1
100
AcDbEntity
  8
FORMAT
 62
     0
100
AcDbLine
 10
0.0
 20
0.0
 30
0.0
 11
0.0
 21
-2.5
 31
0.0
  0
LINE
  5
C7
330
C1
100
AcDbEntity
  8
FORMAT
 62
     0
100
AcDbLine
 10
0.0
 20
0.0
 30
0.0
 11
2.5
 21
0.0
 31
0.0
  0
LINE
  5
C8
330
C1
100
AcDbEntity
  8
FORMAT
 62
     0
100
AcDbLine
 10
0.0
 20
5.0
 30
0.0
 11
0.0
 21
103.0
 31
0.0
  0
LINE
  5
C9
330
C1
100
AcDbEntity
  8
FORMAT
 62
     0
100
AcDbLine
 10
-5.0
 20
0.0
 30
0.0
 11
-103.0
 21
0.0
 31
0.0
  0
LINE
  5
CA
330
C1
100
AcDbEntity
  8
FORMAT
 62
     0
100
AcDbLine
 10
0.0
 20
-5.0
 30
0.0
 11
0.0
 21
-103.0
 31
0.0
  0
LINE
  5
CB
330
C1
100
AcDbEntity
  8
FORMAT
 62
     0
100
AcDbLine
 10
5.0
 20
0.0
 30
0.0
 11
103.0
 21
0.0
 31
0.0
  0
ENDBLK
  5
C3
330
C1
100
AcDbEntity
  8
0
100
AcDbBlockEnd
  0
BLOCK
  5
DF
330
DE
100
AcDbEntity
  8
0
100
AcDbBlockBegin
  2
SW_CENTERMARKSYMBOL_2
 70
     0
 10
0.0
 20
0.0
 30
0.0
  3
SW_CENTERMARKSYMBOL_2
  1

  0
LINE
  5
E1
330
DE
100
AcDbEntity
  8
FORMAT
 62
     0
100
AcDbLine
 10
0.0
 20
0.0
 30
0.0
 11
0.0
 21
2.5
 31
0.0
  0
LINE
  5
E2
330
DE
100
AcDbEntity
  8
FORMAT
 62
     0
100
AcDbLine
 10
0.0
 20
0.0
 30
0.0
 11
-2.5
 21
0.0
 31
0.0
  0
LINE
  5
E3
330
DE
100
AcDbEntity
  8
FORMAT
 62
     0
100
AcDbLine
 10
0.0
 20
0.0
 30
0.0
 11
0.0
 21
-2.5
 31
0.0
  0
LINE
  5
E4
330
DE
100
AcDbEntity
  8
FORMAT
 62
     0
100
AcDbLine
 10
0.0
 20
0.0
 30
0.0
 11
2.5
 21
0.0
 31
0.0
  0
LINE
  5
E5
330
DE
100
AcDbEntity
  8
FORMAT
 62
     0
100
AcDbLine
 10
0.0
 20
5.0
 30
0.0
 11
0.0
 21
103.0
 31
0.0
  0
LINE
  5
E6
330
DE
100
AcDbEntity
  8
FORMAT
 62
     0
100
AcDbLine
 10
-5.0
 20
0.0
 30
0.0
 11
-103.0
 21
0.0
 31
0.0
  0
LINE
  5
E7
330
DE
100
AcDbEntity
  8
FORMAT
 62
     0
100
AcDbLine
 10
0.0
 20
-5.0
 30
0.0
 11
0.0
 21
-103.0
 31
0.0
  0
LINE
  5
E8
330
DE
100
AcDbEntity
  8
FORMAT
 62
     0
100
AcDbLine
 10
5.0
 20
0.0
 30
0.0
 11
103.0
 21
0.0
 31
0.0
  0
ENDBLK
  5
E0
330
DE
100
AcDbEntity
  8
0
100
AcDbBlockEnd
  0
BLOCK
  5
FA
330
F9
100
AcDbEntity
  8
0
100
AcDbBlockBegin
  2
SW_CENTERMARKSYMBOL_3
 70
     0
 10
0.0
 20
0.0
 30
0.0
  3
SW_CENTERMARKSYMBOL_3
  1

  0
LINE
  5
FC
330
F9
100
AcDbEntity
  8
FORMAT
 62
     0
100
AcDbLine
 10
0.0
 20
0.0
 30
0.0
 11
0.0
 21
2.5
 31
0.0
  0
LINE
  5
FD
330
F9
100
AcDbEntity
  8
FORMAT
 62
     0
100
AcDbLine
 10
0.0
 20
0.0
 30
0.0
 11
-2.5
 21
0.0
 31
0.0
  0
LINE
  5
FE
330
F9
100
AcDbEntity
  8
FORMAT
 62
     0
100
AcDbLine
 10
0.0
 20
0.0
 30
0.0
 11
0.0
 21
-2.5
 31
0.0
  0
LINE
  5
FF
330
F9
100
AcDbEntity
  8
FORMAT
 62
     0
100
AcDbLine
 10
0.0
 20
0.0
 30
0.0
 11
2.5
 21
0.0
 31
0.0
  0
LINE
  5
100
330
F9
100
AcDbEntity
  8
FORMAT
 62
     0
100
AcDbLine
 10
0.0
 20
5.0
 30
0.0
 11
0.0
 21
103.0
 31
0.0
  0
LINE
  5
101
330
F9
100
AcDbEntity
  8
FORMAT
 62
     0
100
AcDbLine
 10
-5.0
 20
0.0
 30
0.0
 11
-103.0
 21
0.0
 31
0.0
  0
LINE
  5
102
330
F9
100
AcDbEntity
  8
FORMAT
 62
     0
100
AcDbLine
 10
0.0
 20
-5.0
 30
0.0
 11
0.0
 21
-103.0
 31
0.0
  0
LINE
  5
103
330
F9
100
AcDbEntity
  8
FORMAT
 62
     0
100
AcDbLine
 10
5.0
 20
0.0
 30
0.0
 11
103.0
 21
0.0
 31
0.0
  0
ENDBLK
  5
FB
330
F9
100
AcDbEntity
  8
0
100
AcDbBlockEnd
  0
ENDSEC
  0
SECTION
  2
ENTITIES
  0
LINE
  5
83
330
1F
100
AcDbEntity
  8
0
  6
Continuous
 62
     7
370
    25
100
AcDbLine
 10
-12.010541293
 20
55.0771563516
 30
0.0
 11
-12.010541293
 21
-48.9228436484
 31
0.0
  0
LINE
  5
84
330
1F
100
AcDbEntity
  8
0
  6
Continuous
 62
     7
370
    25
100
AcDbLine
 10
188.989458707
 20
-48.9228436484
 30
0.0
 11
188.989458707
 21
55.0771563516
 31
0.0
  0
ARC
  5
85
330
1F
100
AcDbEntity
  8
0
  6
Continuous
 62
     7
370
    25
100
AcDbCircle
 10
189.489458707
 20
55.0771563516
 30
0.0
 40
0.5
100
AcDbArc
 50
90.0
 51
180.0
  0
ARC
  5
86
330
1F
100
AcDbEntity
  8
0
  6
Continuous
 62
     7
370
    25
100
AcDbCircle
 10
189.489458707
 20
55.0771563516
 30
0.0
 40
201.5
100
AcDbArc
 50
90.0
 51
180.0
  0
LINE
  5
87
330
1F
100
AcDbEntity
  8
0
  6
Continuous
 62
     7
370
    25
100
AcDbLine
 10
293.489458707
 20
256.5771563516
 30
0.0
 11
189.489458707
 21
256.5771563516
 31
0.0
  0
LINE
  5
88
330
1F
100
AcDbEntity
  8
0
  6
Continuous
 62
     7
370
    25
100
AcDbLine
 10
189.489458707
 20
55.5771563516
 30
0.0
 11
293.489458707
 21
55.5771563516
 31
0.0
  0
CIRCLE
  5
89
330
1F
100
AcDbEntity
  8
0
  6
Continuous
 62
     7
370
    25
100
AcDbCircle
 10
88.489458707
 20
-38.9228436484
 30
0.0
 40
5.0
  0
CIRCLE
  5
8A
330
1F
100
AcDbEntity
  8
0
  6
Continuous
 62
     7
370
    25
100
AcDbCircle
 10
88.489458707
 20
-38.9228436484
 30
0.0
 40
7.0
  0
CIRCLE
  5
8B
330
1F
100
AcDbEntity
  8
0
  6
Continuous
 62
     7
370
    25
100
AcDbCircle
 10
283.489458707
 20
156.0771563516
 30
0.0
 40
7.0
  0
CIRCLE
  5
8C
330
1F
100
AcDbEntity
  8
0
  6
Continuous
 62
     7
370
    25
100
AcDbCircle
 10
283.489458707
 20
156.0771563516
 30
0.0
 40
5.000000000000057
  0
LINE
  5
8D
330
1F
100
AcDbEntity
  8
0
  6
Continuous
 62
     7
370
    25
100
AcDbLine
 10
88.489458707
 20
-48.9228436484
 30
0.0
 11
188.989458707
 21
-48.9228436484
 31
0.0
  0
LINE
  5
8E
330
1F
100
AcDbEntity
  8
0
  6
Continuous
 62
     7
370
    25
100
AcDbLine
 10
-12.010541293
 20
-48.9228436484
 30
0.0
 11
88.489458707
 21
-48.9228436484
 31
0.0
  0
LINE
  5
8F
330
1F
100
AcDbEntity
  8
0
  6
Continuous
 62
     7
370
    25
100
AcDbLine
 10
293.489458707
 20
156.0771563516
 30
0.0
 11
293.489458707
 21
55.5771563516
 31
0.0
  0
LINE
  5
90
330
1F
100
AcDbEntity
  8
0
  6
Continuous
 62
     7
370
    25
100
AcDbLine
 10
293.489458707
 20
256.5771563516
 30
0.0
 11
293.489458707
 21
156.0771563516
 31
0.0
  0
LINE
  5
91
330
1F
100
AcDbEntity
  8
0
  6
Continuous
 62
     1
370
    25
100
AcDbLine
 10
88.489458707
 20
55.0771563516
 30
0.0
 11
188.989458707
 21
55.0771563516
 31
0.0
  0
LINE
  5
92
330
1F
100
AcDbEntity
  8
0
  6
Continuous
 62
     1
370
    25
100
AcDbLine
 10
-12.010541293
 20
55.0771563516
 30
0.0
 11
88.489458707
 21
55.0771563516
 31
0.0
  0
LINE
  5
93
330
1F
100
AcDbEntity
  8
0
  6
Continuous
 62
     1
370
    25
100
AcDbLine
 10
189.489458707
 20
156.0771563516
 30
0.0
 11
189.489458707
 21
55.5771563516
 31
0.0
  0
LINE
  5
94
330
1F
100
AcDbEntity
  8
0
  6
Continuous
 62
     1
370
    25
100
AcDbLine
 10
189.489458707
 20
256.5771563516
 30
0.0
 11
189.489458707
 21
156.0771563516
 31
0.0
  0
LINE
  5
95
330
1F
100
AcDbEntity
  8
0
  6
Continuous
 62
     7
370
    25
100
AcDbLine
 10
-415.8121262575
 20
163.0771563516
 30
0.0
 11
-431.0556669498
 21
163.0771563516
 31
0.0
  0
LINE
  5
96
330
1F
100
AcDbEntity
  8
0
  6
Continuous
 62
     7
370
    25
100
AcDbLine
 10
-431.0556669498
 20
149.0771563516
 30
0.0
 11
-415.8177474092
 21
149.0771563516
 31
0.0
  0
LINE
  5
97
330
1F
100
AcDbEntity
  8
0
  6
Continuous
 62
     7
370
    25
100
AcDbLine
 10
-416.0556669498
 20
149.0771563516
 30
0.0
 11
-416.0556669498
 21
55.0771563516
 31
0.0
  0
LINE
  5
98
330
1F
100
AcDbEntity
  8
0
  6
Continuous
 62
     7
370
    25
100
AcDbLine
 10
-215.0556669498
 20
55.0771563516
 30
0.0
 11
-215.0556669498
 21
156.0771563516
 31
0.0
  0
LINE
  5
99
330
1F
100
AcDbEntity
  8
0
  6
Continuous
 62
     7
370
    25
100
AcDbLine
 10
-416.0556669498
 20
-45.9228436484
 30
0.0
 11
-416.0556669498
 21
-48.9228436484
 31
0.0
  0
LINE
  5
9A
330
1F
100
AcDbEntity
  8
0
  6
Continuous
 62
     7
370
    25
100
AcDbLine
 10
-416.0556669498
 20
55.0771563516
 30
0.0
 11
-416.0556669498
 21
-32.0091482703
 31
0.0
  0
LINE
  5
9B
330
1F
100
AcDbEntity
  8
0
  6
Continuous
 62
     7
370
    25
100
AcDbLine
 10
-215.0556669498
 20
-48.9228436484
 30
0.0
 11
-215.0556669498
 21
55.0771563516
 31
0.0
  0
LINE
  5
9C
330
1F
100
AcDbEntity
  8
0
  6
Continuous
 62
     7
370
    25
100
AcDbLine
 10
-416.0497362892
 20
-31.9228436484
 30
0.0
 11
-431.0556669498
 21
-31.9228436484
 31
0.0
  0
LINE
  5
9D
330
1F
100
AcDbEntity
  8
0
  6
Continuous
 62
     7
370
    25
100
AcDbLine
 10
-431.0556669498
 20
-45.9228436484
 30
0.0
 11
-416.0556669498
 21
-45.9228436484
 31
0.0
  0
CIRCLE
  5
9E
330
1F
100
AcDbEntity
  8
0
  6
Continuous
 62
     7
370
    25
100
AcDbCircle
 10
-315.5556669498
 20
156.0771563516
 30
0.0
 40
100.5
  0
CIRCLE
  5
9F
330
1F
100
AcDbEntity
  8
0
  6
Continuous
 62
     7
370
    25
100
AcDbCircle
 10
-315.5556669498
 20
156.0771563516
 30
0.0
 40
80.0
  0
LINE
  5
A0
330
1F
100
AcDbEntity
  8
0
  6
Continuous
 62
     7
370
    25
100
AcDbLine
 10
-431.0556669498
 20
163.0771563516
 30
0.0
 11
-431.0556669498
 21
149.0771563516
 31
0.0
  0
SPLINE
  5
A1
330
1F
100
AcDbEntity
  8
0
  6
Continuous
 62
     7
370
    25
100
AcDbSpline
210
0.0
220
0.0
230
1.0
 70
     8
 71
     3
 72
    17
 73
    13
 74
     0
 42
0.00000001
 43
0.00000001
 40
0.0
 40
0.0
 40
0.0
 40
0.0
 40
0.107193593040326
 40
0.2143809216521572
 40
0.3217309702116272
 40
0.4291886935498326
 40
0.536469028186799
 40
0.6435636961811058
 40
0.7507541615456063
 40
0.8581721682126746
 40
0.9655948634955349
 40
0.9999999999999999
 40
0.9999999999999999
 40
0.9999999999999999
 40
0.9999999999999999
 10
-416.0556669497586
 20
-45.92284364835695
 30
0.0
 10
-416.050136701222
 20
-45.84563997604589
 30
0.0
 10
-416.0390765273383
 20
-45.69123714323156
 30
0.0
 10
-415.962155347417
 20
-44.48785054159106
 30
0.0
 10
-415.8764944962526
 20
-42.71409399823565
 30
0.0
 10
-415.8147338173541
 20
-40.49668312118505
 30
0.0
 10
-415.8055006218306
 20
-38.10591369572234
 30
0.0
 10
-415.8520082771416
 20
-35.81261338585051
 30
0.0
 10
-415.9351387931293
 20
-33.85416722655256
 30
0.0
 10
-416.0140857852477
 20
-32.51937459374837
 30
0.0
 10
-416.0582955692189
 20
-31.88459276768744
 30
0.0
 10
-416.0513897695113
 20
-31.98483188326357
 30
0.0
 10
-416.0497145342728
 20
-32.00914827032965
 30
0.0
  0
LINE
  5
A2
330
1F
100
AcDbEntity
  8
0
  6
Continuous
 62
     7
370
    25
100
AcDbLine
 10
-416.0556669498
 20
-48.9228436484
 30
0.0
 11
-215.0556669498
 21
-48.9228436484
 31
0.0
  0
LINE
  5
A3
330
1F
100
AcDbEntity
  8
0
  6
Continuous
 62
     7
370
    25
100
AcDbLine
 10
-431.0556669498
 20
-31.9228436484
 30
0.0
 11
-431.0556669498
 21
-45.9228436484
 31
0.0
  0
LINE
  5
A4
330
1F
100
AcDbEntity
  8
0
  6
Continuous
 62
     1
370
    25
100
AcDbLine
 10
-416.0556669498
 20
55.0771563516
 30
0.0
 11
-215.0556669498
 21
55.0771563516
 31
0.0
  0
INSERT
  5
B0
330
1F
100
AcDbEntity
  8
FORMAT
 62
     7
100
AcDbBlockReference
  2
SW_CENTERMARKSYMBOL_0
 10
-315.5556669498
 20
156.0771563516
 30
0.0
  0
LINE
  5
B1
330
1F
100
AcDbEntity
  8
0
  6
Continuous
 62
     7
370
    25
100
AcDbLine
 10
95.489458707
 20
589.6987139149
 30
0.0
 11
95.489458707
 21
604.9366334555
 31
0.0
  0
LINE
  5
B2
330
1F
100
AcDbEntity
  8
0
  6
Continuous
 62
     7
370
    25
100
AcDbLine
 10
81.489458707
 20
604.9366334555
 30
0.0
 11
81.489458707
 21
589.6930927632
 31
0.0
  0
LINE
  5
B3
330
1F
100
AcDbEntity
  8
0
  6
Continuous
 62
     7
370
    25
100
AcDbLine
 10
189.489458707
 20
589.9366334555
 30
0.0
 11
95.489458707
 21
589.9366334555
 31
0.0
  0
LINE
  5
B4
330
1F
100
AcDbEntity
  8
0
  6
Continuous
 62
     7
370
    25
100
AcDbLine
 10
88.489458707
 20
388.9366334555
 30
0.0
 11
189.489458707
 21
388.9366334555
 31
0.0
  0
LINE
  5
B5
330
1F
100
AcDbEntity
  8
0
  6
Continuous
 62
     7
370
    25
100
AcDbLine
 10
276.489458707
 20
589.9366334555
 30
0.0
 11
189.489458707
 21
589.9366334555
 31
0.0
  0
LINE
  5
B6
330
1F
100
AcDbEntity
  8
0
  6
Continuous
 62
     7
370
    25
100
AcDbLine
 10
293.489458707
 20
589.9366334555
 30
0.0
 11
290.403154085
 21
589.9366334555
 31
0.0
  0
LINE
  5
B7
330
1F
100
AcDbEntity
  8
0
  6
Continuous
 62
     7
370
    25
100
AcDbLine
 10
189.489458707
 20
388.9366334555
 30
0.0
 11
293.489458707
 21
388.9366334555
 31
0.0
  0
LINE
  5
B8
330
1F
100
AcDbEntity
  8
0
  6
Continuous
 62
     7
370
    25
100
AcDbLine
 10
290.489458707
 20
589.9307027949
 30
0.0
 11
290.489458707
 21
604.9366334555
 31
0.0
  0
LINE
  5
B9
330
1F
100
AcDbEntity
  8
0
  6
Continuous
 62
     7
370
    25
100
AcDbLine
 10
276.489458707
 20
604.9366334555
 30
0.0
 11
276.489458707
 21
589.9366334555
 31
0.0
  0
CIRCLE
  5
BA
330
1F
100
AcDbEntity
  8
0
  6
Continuous
 62
     7
370
    25
100
AcDbCircle
 10
88.489458707
 20
489.4366334555
 30
0.0
 40
80.00000000000011
  0
CIRCLE
  5
BB
330
1F
100
AcDbEntity
  8
0
  6
Continuous
 62
     7
370
    25
100
AcDbCircle
 10
88.489458707
 20
489.4366334555
 30
0.0
 40
100.5
  0
LINE
  5
BC
330
1F
100
AcDbEntity
  8
0
  6
Continuous
 62
     7
370
    25
100
AcDbLine
 10
95.489458707
 20
604.9366334555
 30
0.0
 11
81.489458707
 21
604.9366334555
 31
0.0
  0
SPLINE
  5
BD
330
1F
100
AcDbEntity
  8
0
  6
Continuous
 62
     7
370
    25
100
AcDbSpline
210
0.0
220
0.0
230
1.0
 70
     8
 71
     3
 72
    17
 73
    13
 74
     0
 42
0.00000001
 43
0.00000001
 40
0.0
 40
0.0
 40
0.0
 40
0.0
 40
0.1071935930403264
 40
0.2143809216521577
 40
0.3217309702116266
 40
0.4291886935498327
 40
0.5364690281867996
 40
0.6435636961811069
 40
0.7507541615456068
 40
0.8581721682126746
 40
0.965594863495537
 40
1.0
 40
1.0
 40
1.0
 40
1.0
 10
276.4894587069628
 20
589.9366334554645
 30
0.0
 10
276.5666623792739
 20
589.9311032069279
 30
0.0
 10
276.7210652120882
 20
589.9200430330443
 30
0.0
 10
277.9244518137286
 20
589.843121853123
 30
0.0
 10
279.698208357084
 20
589.7574610019586
 30
0.0
 10
281.9156192341347
 20
589.6957003230601
 30
0.0
 10
284.3063886595975
 20
589.6864671275366
 30
0.0
 10
286.5996889694692
 20
589.7329747828477
 30
0.0
 10
288.5581351287672
 20
589.8161052988352
 30
0.0
 10
289.8929277615714
 20
589.8950522909537
 30
0.0
 10
290.5277095876323
 20
589.9392620749248
 30
0.0
 10
290.4274704720561
 20
589.9323562752172
 30
0.0
 10
290.4031540849901
 20
589.9306810399787
 30
0.0
  0
LINE
  5
BE
330
1F
100
AcDbEntity
  8
0
  6
Continuous
 62
     7
370
    25
100
AcDbLine
 10
293.489458707
 20
589.9366334555
 30
0.0
 11
293.489458707
 21
388.9366334555
 31
0.0
  0
LINE
  5
BF
330
1F
100
AcDbEntity
  8
0
  6
Continuous
 62
     7
370
    25
100
AcDbLine
 10
290.489458707
 20
604.9366334555
 30
0.0
 11
276.489458707
 21
604.9366334555
 31
0.0
  0
LINE
  5
C0
330
1F
100
AcDbEntity
  8
0
  6
Continuous
 62
     1
370
    25
100
AcDbLine
 10
189.489458707
 20
589.9366334555
 30
0.0
 11
189.489458707
 21
388.9366334555
 31
0.0
  0
INSERT
  5
CC
330
1F
100
AcDbEntity
  8
FORMAT
 62
     7
100
AcDbBlockReference
  2
SW_CENTERMARKSYMBOL_1
 10
88.489458707
 20
489.4366334555
 30
0.0
  0
LINE
  5
CD
330
1F
100
AcDbEntity
  8
0
  6
Continuous
 62
     7
370
    25
100
AcDbLine
 10
468.2217563144
 20
55.0771563516
 30
0.0
 11
468.2217563144
 21
-48.9228436484
 31
0.0
  0
LINE
  5
CE
330
1F
100
AcDbEntity
  8
0
  6
Continuous
 62
     7
370
    25
100
AcDbLine
 10
669.2217563144
 20
-32.0091482703
 30
0.0
 11
669.2217563144
 21
55.0771563516
 31
0.0
  0
LINE
  5
CF
330
1F
100
AcDbEntity
  8
0
  6
Continuous
 62
     7
370
    25
100
AcDbLine
 10
669.2217563144
 20
-48.9228436484
 30
0.0
 11
669.2217563144
 21
-45.9228436484
 31
0.0
  0
LINE
  5
D0
330
1F
100
AcDbEntity
  8
0
  6
Continuous
 62
     7
370
    25
100
AcDbLine
 10
669.2217563144
 20
55.0771563516
 30
0.0
 11
669.2217563144
 21
156.0771563516
 31
0.0
  0
LINE
  5
D1
330
1F
100
AcDbEntity
  8
0
  6
Continuous
 62
     7
370
    25
100
AcDbLine
 10
468.2217563144
 20
156.0771563516
 30
0.0
 11
468.2217563144
 21
55.0771563516
 31
0.0
  0
LINE
  5
D2
330
1F
100
AcDbEntity
  8
0
  6
Continuous
 62
     7
370
    25
100
AcDbLine
 10
669.2217563144
 20
-45.9228436484
 30
0.0
 11
684.2217563144
 21
-45.9228436484
 31
0.0
  0
LINE
  5
D3
330
1F
100
AcDbEntity
  8
0
  6
Continuous
 62
     7
370
    25
100
AcDbLine
 10
684.2217563144
 20
-31.9228436484
 30
0.0
 11
669.2158256538
 21
-31.9228436484
 31
0.0
  0
LINE
  5
D4
330
1F
100
AcDbEntity
  8
0
  6
Continuous
 62
     7
370
    25
100
AcDbLine
 10
669.2217563144
 20
149.0771563516
 30
0.0
 11
684.2217563144
 21
149.0771563516
 31
0.0
  0
LINE
  5
D5
330
1F
100
AcDbEntity
  8
0
  6
Continuous
 62
     7
370
    25
100
AcDbLine
 10
684.2217563144
 20
163.0771563516
 30
0.0
 11
668.9782156222
 21
163.0771563516
 31
0.0
  0
LINE
  5
D6
330
1F
100
AcDbEntity
  8
0
  6
Continuous
 62
     7
370
    25
100
AcDbLine
 10
468.2217563144
 20
-48.9228436484
 30
0.0
 11
669.2217563144
 21
-48.9228436484
 31
0.0
  0
ARC
  5
D7
330
1F
100
AcDbEntity
  8
0
  6
Continuous
 62
     7
370
    25
100
AcDbCircle
 10
769.58749807
 20
-38.9230572364
 30
0.0
 40
100.609537957245
100
AcDbArc
 50
176.0595161499
 51
183.9895072411
  0
ARC
  5
D8
330
1F
100
AcDbEntity
  8
0
  6
Continuous
 62
     7
370
    25
100
AcDbCircle
 10
568.7217563144
 20
156.0771563516
 30
0.0
 40
100.5000000000001
100
AcDbArc
 50
0.0
 51
180.0
  0
LINE
  5
D9
330
1F
100
AcDbEntity
  8
0
  6
Continuous
 62
     7
370
    25
100
AcDbLine
 10
684.2217563144
 20
-38.9228436484
 30
0.0
 11
684.2217563144
 21
-31.9228436484
 31
0.0
  0
LINE
  5
DA
330
1F
100
AcDbEntity
  8
0
  6
Continuous
 62
     7
370
    25
100
AcDbLine
 10
684.2217563144
 20
-45.9228436484
 30
0.0
 11
684.2217563144
 21
-38.9228436484
 31
0.0
  0
LINE
  5
DB
330
1F
100
AcDbEntity
  8
0
  6
Continuous
 62
     7
370
    25
100
AcDbLine
 10
684.2217563144
 20
156.0771563516
 30
0.0
 11
684.2217563144
 21
163.0771563516
 31
0.0
  0
LINE
  5
DC
330
1F
100
AcDbEntity
  8
0
  6
Continuous
 62
     7
370
    25
100
AcDbLine
 10
684.2217563144
 20
149.0771563516
 30
0.0
 11
684.2217563144
 21
156.0771563516
 31
0.0
  0
LINE
  5
DD
330
1F
100
AcDbEntity
  8
0
  6
Continuous
 62
     1
370
    25
100
AcDbLine
 10
468.2217563144
 20
55.0771563516
 30
0.0
 11
669.2217563144
 21
55.0771563516
 31
0.0
  0
INSERT
  5
E9
330
1F
100
AcDbEntity
  8
FORMAT
 62
     7
100
AcDbBlockReference
  2
SW_CENTERMARKSYMBOL_2
 10
568.7217563144
 20
156.0771563516
 30
0.0
  0
LINE
  5
EA
330
1F
100
AcDbEntity
  8
0
  6
Continuous
 62
     7
370
    25
100
AcDbLine
 10
88.489458707
 20
-421.3866897902
 30
0.0
 11
189.489458707
 21
-421.3866897902
 31
0.0
  0
LINE
  5
EB
330
1F
100
AcDbEntity
  8
0
  6
Continuous
 62
     7
370
    25
100
AcDbLine
 10
189.489458707
 20
-220.3866897902
 30
0.0
 11
88.489458707
 21
-220.3866897902
 31
0.0
  0
LINE
  5
EC
330
1F
100
AcDbEntity
  8
0
  6
Continuous
 62
     7
370
    25
100
AcDbLine
 10
293.489458707
 20
-220.3866897902
 30
0.0
 11
189.489458707
 21
-220.3866897902
 31
0.0
  0
LINE
  5
ED
330
1F
100
AcDbEntity
  8
0
  6
Continuous
 62
     7
370
    25
100
AcDbLine
 10
290.403154085
 20
-421.3866897902
 30
0.0
 11
293.489458707
 21
-421.3866897902
 31
0.0
  0
LINE
  5
EE
330
1F
100
AcDbEntity
  8
0
  6
Continuous
 62
     7
370
    25
100
AcDbLine
 10
189.489458707
 20
-421.3866897902
 30
0.0
 11
276.489458707
 21
-421.3866897902
 31
0.0
  0
LINE
  5
EF
330
1F
100
AcDbEntity
  8
0
  6
Continuous
 62
     7
370
    25
100
AcDbLine
 10
276.489458707
 20
-421.3866897902
 30
0.0
 11
276.489458707
 21
-436.3866897902
 31
0.0
  0
LINE
  5
F0
330
1F
100
AcDbEntity
  8
0
  6
Continuous
 62
     7
370
    25
100
AcDbLine
 10
290.489458707
 20
-436.3866897902
 30
0.0
 11
290.489458707
 21
-421.3807591296
 31
0.0
  0
LINE
  5
F1
330
1F
100
AcDbEntity
  8
0
  6
Continuous
 62
     7
370
    25
100
AcDbLine
 10
81.489458707
 20
-421.143149098
 30
0.0
 11
81.489458707
 21
-436.3866897902
 31
0.0
  0
LINE
  5
F2
330
1F
100
AcDbEntity
  8
0
  6
Continuous
 62
     7
370
    25
100
AcDbLine
 10
95.489458707
 20
-436.3866897902
 30
0.0
 11
95.489458707
 21
-421.3866897902
 31
0.0
  0
ARC
  5
F3
330
1F
100
AcDbEntity
  8
0
  6
Continuous
 62
     7
370
    25
100
AcDbCircle
 10
88.489458707
 20
-320.8866897902
 30
0.0
 40
100.5000000000001
100
AcDbArc
 50
90.0
 51
270.0
  0
ARC
  5
F4
330
1F
100
AcDbEntity
  8
0
  6
Continuous
 62
     7
370
    25
100
AcDbCircle
 10
283.4892451189
 20
-521.7524315463
 30
0.0
 40
100.6095379577444
100
AcDbArc
 50
86.0595161499
 51
93.9895072411
  0
LINE
  5
F5
330
1F
100
AcDbEntity
  8
0
  6
Continuous
 62
     7
370
    25
100
AcDbLine
 10
293.489458707
 20
-220.3866897902
 30
0.0
 11
293.489458707
 21
-421.3866897902
 31
0.0
  0
LINE
  5
F6
330
1F
100
AcDbEntity
  8
0
  6
Continuous
 62
     7
370
    25
100
AcDbLine
 10
276.489458707
 20
-436.3866897902
 30
0.0
 11
290.489458707
 21
-436.3866897902
 31
0.0
  0
LINE
  5
F7
330
1F
100
AcDbEntity
  8
0
  6
Continuous
 62
     7
370
    25
100
AcDbLine
 10
81.489458707
 20
-436.3866897902
 30
0.0
 11
95.489458707
 21
-436.3866897902
 31
0.0
  0
LINE
  5
F8
330
1F
100
AcDbEntity
  8
0
  6
Continuous
 62
     1
370
    25
100
AcDbLine
 10
189.489458707
 20
-220.3866897902
 30
0.0
 11
189.489458707
 21
-421.3866897902
 31
0.0
  0
INSERT
  5
104
330
1F
100
AcDbEntity
  8
FORMAT
 62
     7
100
AcDbBlockReference
  2
SW_CENTERMARKSYMBOL_3
 10
88.489458707
 20
-320.8866897902
 30
0.0
  0
LINE
  5
105
330
1F
100
AcDbEntity
  8
0
  6
Continuous
 62
     7
370
    25
100
AcDbLine
 10
662.283423084
 20
-107.9461796357
 30
0.0
 11
588.7443178406
 21
-150.3994014505
 31
0.0
  0
LINE
  5
106
330
1F
100
AcDbEntity
  8
0
  6
Continuous
 62
     7
370
    25
100
AcDbLine
 10
689.2361504705
 20
-324.475222789
 30
0.0
 11
762.7752557139
 21
-282.0220009742
 31
0.0
  0
LINE
  5
107
330
1F
100
AcDbEntity
  8
0
  6
Continuous
 62
     7
370
    25
100
AcDbLine
 10
467.0724492557
 20
-361.1365437673
 30
0.0
 11
467.0724492557
 21
-446.0567882034
 31
0.0
  0
LINE
  5
108
330
1F
100
AcDbEntity
  8
0
  6
Continuous
 62
     7
370
    25
100
AcDbLine
 10
668.0724492557
 20
-446.0567882034
 30
0.0
 11
668.0724492557
 21
-361.1365437673
 31
0.0
  0
LINE
  5
109
330
1F
100
AcDbEntity
  8
0
  6
Continuous
 62
     7
370
    25
100
AcDbLine
 10
637.9803531456
 20
-152.029272883
 30
0.0
 11
627.2871539243
 21
-145.8562203697
 31
0.0
  0
LINE
  5
10A
330
1F
100
AcDbEntity
  8
0
  6
Continuous
 62
     7
370
    25
100
AcDbLine
 10
620.2877227958
 20
-157.980904443
 30
0.0
 11
630.9802195128
 21
-164.1535514092
 31
0.0
  0
LINE
  5
10B
330
1F
100
AcDbEntity
  8
0
  6
Continuous
 62
     7
370
    25
100
AcDbLine
 10
500.0941244201
 20
-390.8542874971
 30
0.0
 11
489.4013315929
 21
-384.6814695901
 31
0.0
  0
LINE
  5
10C
330
1F
100
AcDbEntity
  8
0
  6
Continuous
 62
     7
370
    25
100
AcDbLine
 10
482.4019004645
 20
-396.8061536634
 30
0.0
 11
493.095130342
 21
-402.9792238742
 31
0.0
  0
SPLINE
  5
10D
330
1F
100
AcDbEntity
  8
0
  6
Continuous
 62
     7
370
    25
100
AcDbSpline
210
0.0
220
0.0
230
1.0
 70
     8
 71
     3
 72
    35
 73
    31
 74
     0
 42
0.00000001
 43
0.00000001
 40
0.0
 40
0.0
 40
0.0
 40
0.0
 40
0.032827212943634
 40
0.0705373928619756
 40
0.1072385408317642
 40
0.1432110614347421
 40
0.1787081852875277
 40
0.2139491000833329
 40
0.2491155135811974
 40
0.2843493511818447
 40
0.319729159702969
 40
0.3553156991180322
 40
0.3911457367447963
 40
0.42722245850561
 40
0.4635211285458389
 40
0.4999958851586956
 40
0.536587464655739
 40
0.5732202224797927
 40
0.6098234833131032
 40
0.6463532163563905
 40
0.6827893753029612
 40
0.7191435921551341
 40
0.7554657014485752
 40
0.791848614770962
 40
0.828408848690997
 40
0.865293806533895
 40
0.9027151676834289
 40
0.9409252460191249
 40
0.9802117463173163
 40
1.0
 40
1.0
 40
1.0
 40
1.0
 10
668.0725506080499
 20
-361.1995632013807
 30
0.0
 10
668.0727225675678
 20
-361.1888063266866
 30
0.0
 10
668.0730920651579
 20
-361.1656925187136
 30
0.0
 10
668.1008547216992
 20
-360.7939561727192
 30
0.0
 10
668.1763409586854
 20
-360.1638011825135
 30
0.0
 10
668.3170102738086
 20
-359.2755939280858
 30
0.0
 10
668.5382546546145
 20
-358.1533071184968
 30
0.0
 10
668.8538565497277
 20
-356.8110416892056
 30
0.0
 10
669.2752709172408
 20
-355.2679470981494
 30
0.0
 10
669.8113418786228
 20
-353.545326587664
 30
0.0
 10
670.4678616095543
 20
-351.6677703848827
 30
0.0
 10
671.2472453068776
 20
-349.6626751814161
 30
0.0
 10
672.1484515585926
 20
-347.5595796934653
 30
0.0
 10
673.1666463738728
 20
-345.3901122835157
 30
0.0
 10
674.2929314141745
 20
-343.1876855256834
 30
0.0
 10
675.5143146771163
 20
-340.9867239394471
 30
0.0
 10
676.8137244454775
 20
-338.8219590984431
 30
0.0
 10
678.1703227151033
 20
-336.7273456944965
 30
0.0
 10
679.5602010361057
 20
-334.7346728872358
 30
0.0
 10
680.9572790945936
 20
-332.8723176446902
 30
0.0
 10
682.3341079798619
 20
-331.1644677863242
 30
0.0
 10
683.6624861744938
 20
-329.6307622985954
 30
0.0
 10
684.9141896485817
 20
-328.2859421548909
 30
0.0
 10
686.0611942740722
 20
-327.1400820631209
 30
0.0
 10
687.0764686951567
 20
-326.1984060942115
 30
0.0
 10
687.9330902465758
 20
-325.4620846185811
 30
0.0
 10
688.6104749638782
 20
-324.9248459248188
 30
0.0
 10
689.0714688801847
 20
-324.5877048990325
 30
0.0
 10
689.3002336332432
 20
-324.4375080187613
 30
0.0
 10
689.2851822560317
 20
-324.4468914496841
 30
0.0
 10
689.2801405004515
 20
-324.4500346148942
 30
0.0
  0
SPLINE
  5
10E
330
1F
100
AcDbEntity
  8
0
  6
Continuous
 62
     7
370
    25
100
AcDbSpline
210
0.0
220
0.0
230
1.0
 70
     8
 71
     3
 72
    41
 73
    37
 74
     0
 42
0.00000001
 43
0.00000001
 40
0.0
 40
0.0
 40
0.0
 40
0.0
 40
0.019627281961664
 40
0.0498404858839745
 40
0.0801226382833739
 40
0.1105439860763247
 40
0.1410557888375677
 40
0.1716098444167768
 40
0.2021601741670691
 40
0.2326784386471935
 40
0.2631445027966123
 40
0.2935461777350493
 40
0.3238784275666363
 40
0.3541423332135981
 40
0.3843439966292869
 40
0.4144935028227385
 40
0.444603999302601
 40
0.4746909101092647
 40
0.5047712741873017
 40
0.5348631819200601
 40
0.5649811978955048
 40
0.5951419865936376
 40
0.6253640833707802
 40
0.6556652395287014
 40
0.6860618105449354
 40
0.7165680182759706
 40
0.7471950523574761
 40
0.777949990708683
 40
0.8088345468125013
 40
0.8398436981467341
 40
0.8709643189058759
 40
0.9021740264788599
 40
0.9334390410329186
 40
0.9647029485583086
 40
0.9936537607615581
 40
1.0
 40
1.0
 40
1.0
 40
1.0
 10
588.7443178406081
 20
-150.3994014504949
 30
0.0
 10
587.3588096044666
 20
-151.2128168343063
 30
0.0
 10
583.8405229756601
 20
-153.2783610107157
 30
0.0
 10
578.2909702382191
 20
-156.8213326949817
 30
0.0
 10
572.1115097892092
 20
-161.0693091665632
 30
0.0
 10
566.0419145322674
 20
-165.5709936500987
 30
0.0
 10
560.0861642790884
 20
-170.3141561340699
 30
0.0
 10
554.2584883673543
 20
-175.2860769498461
 30
0.0
 10
548.5705378378738
 20
-180.4720462901145
 30
0.0
 10
543.0320771191649
 20
-185.8582896441857
 30
0.0
 10
537.6505902007909
 20
-191.4320836395378
 30
0.0
 10
532.4321687625472
 20
-197.1816017471947
 30
0.0
 10
527.3817516202363
 20
-203.0959769792808
 30
0.0
 10
522.5034128646213
 20
-209.1653234264934
 30
0.0
 10
517.8006313529493
 20
-215.3806821577839
 30
0.0
 10
513.2765309690787
 20
-221.7339360647055
 30
0.0
 10
508.9340823686166
 20
-228.2177083494264
 30
0.0
 10
504.7762675363717
 20
-234.8252582043892
 30
0.0
 10
500.806212088304
 20
-241.5503792637791
 30
0.0
 10
497.0274627312421
 20
-248.3869933812426
 30
0.0
 10
493.4439460883308
 20
-255.3291849523753
 30
0.0
 10
490.0599293172921
 20
-262.3712739113415
 30
0.0
 10
486.8799501195926
 20
-269.5080540071481
 30
0.0
 10
483.9089846067228
 20
-276.73454035695
 30
0.0
 10
481.1525881776112
 20
-284.0456569110686
 30
0.0
 10
478.6169422356271
 20
-291.4360521782238
 30
0.0
 10
476.3088840891179
 20
-298.8998714745923
 30
0.0
 10
474.23591195952
 20
-306.4304805895206
 30
0.0
 10
472.4061410220871
 20
-314.0201441662487
 30
0.0
 10
470.8282268411731
 20
-321.6596689966782
 30
0.0
 10
469.5111068377085
 20
-329.3380577455116
 30
0.0
 10
468.4640497582004
 20
-337.0420469439473
 30
0.0
 10
467.6952279429204
 20
-344.7549856067469
 30
0.0
 10
467.2267925314285
 20
-352.2717332235399
 30
0.0
 10
467.0810295322534
 20
-357.7293104301644
 30
0.0
 10
467.0737568490213
 20
-360.6172976283211
 30
0.0
 10
467.0724492557292
 20
-361.136543767261
 30
0.0
  0
LWPOLYLINE
  5
10F
330
1F
100
AcDbEntity
  8
0
  6
Continuous
 62
     7
370
    25
100
AcDbPolyline
 90
      110
 70
   128
 43
0.0
 10
641.4651078897
 20
-153.9595826859
 10
641.5831420049
 20
-158.7554972029
 10
641.9368522531
 20
-163.6717594628
 10
642.5250636444
 20
-168.6920381368
 10
643.3458221998
 20
-173.7996563641
 10
644.3964014417
 20
-178.9776471504
 10
645.6733114517
 20
-184.2088097313
 10
647.1723104632
 20
-189.4757667105
 10
648.888418952
 20
-194.7610217868
 10
650.8159361785
 20
-200.0470178743
 10
652.9484591242
 20
-205.3161954256
 10
655.2789037624
 20
-210.5510507627
 10
657.7995285904
 20
-215.7341942226
 10
660.5019603459
 20
-220.8484079242
 10
663.3772218224
 20
-225.8767029636
 10
666.4157616905
 20
-230.8023758505
 10
669.6074862263
 20
-235.609063995
 10
672.9417928418
 20
-240.2808000623
 10
676.4076053059
 20
-244.8020650151
 10
679.993410538
 20
-249.1578396659
 10
683.6872968538
 20
-253.3336545694
 10
687.4769935344
 20
-257.3156380883
 10
691.3499115886
 20
-261.090562474
 10
695.293185572
 20
-264.6458878071
 10
699.2937163251
 20
-267.9698036546
 10
703.3382144869
 20
-271.0512683021
 10
707.4132446414
 20
-273.8800454341
 10
711.5052699482
 20
-276.4467381375
 10
715.6006971107
 20
-278.742820117
 10
719.6859215318
 20
-280.7606640194
 10
723.7473725067
 20
-282.4935667702
 10
727.7715583038
 20
-283.9357718405
 10
731.7451109825
 20
-285.0824883703
 10
735.6548308005
 20
-285.9299070826
 10
739.4877300617
 20
-286.4752129375
 10
743.2310762602
 20
-286.716594484
 10
746.8724343764
 20
-286.6532498767
 10
750.3997081848
 20
-286.2853895401
 10
753.8011804366
 20
-285.6142354693
 10
757.065551783
 20
-284.6420171705
 10
760.1819783107
 20
-283.3719642551
 10
763.1401075641
 20
-281.8082957114
 10
765.9301129354
 20
-279.9562058888
 10
768.5427263073
 20
-277.8218472435
 10
770.969268841
 20
-275.4123099003
 10
773.201679806
 20
-272.7355981
 10
775.2325433579
 20
-269.8006036099
 10
777.0551131719
 20
-266.6170761866
 10
778.6633348546
 20
-263.195591188
 10
780.0518660552
 20
-259.5475144433
 10
781.2160942127
 20
-255.6849644964
 10
782.1521518783
 20
-251.6207723499
 10
782.8569295624
 20
-247.3684388414
 10
783.3280860646
 20
-242.9420897951
 10
783.5640562503
 20
-238.3564290974
 10
783.5640562503
 20
-233.6266898521
 10
783.3280860646
 20
-228.7685837771
 10
782.8569295624
 20
-223.7982490125
 10
782.1521518783
 20
-218.7321965103
 10
781.2160942127
 20
-213.5872551875
 10
780.0518660552
 20
-208.3805160219
 10
778.6633348546
 20
-203.1292752772
 10
777.0551131719
 20
-197.8509770472
 10
775.2325433579
 20
-192.5631553077
 10
773.201679806
 20
-187.2833756709
 10
770.969268841
 20
-182.0291770336
 10
768.5427263073
 20
-176.8180133154
 10
765.9301129354
 20
-171.6671954781
 10
763.1401075641
 20
-166.5938340205
 10
760.1819783107
 20
-161.6147821392
 10
757.065551783
 20
-156.7465797438
 10
753.8011804366
 20
-152.005398513
 10
750.3997081848
 20
-147.4069881743
 10
746.8724343764
 20
-142.9666241842
 10
743.2310762602
 20
-138.6990569853
 10
739.4877300617
 20
-134.6184630068
 10
735.6548308005
 20
-130.7383975715
 10
731.7451109825
 20
-127.0717498665
 10
727.7715583038
 20
-123.6307001268
 10
723.7473725067
 20
-120.4266791735
 10
719.6859215318
 20
-117.4703304421
 10
715.6006971107
 20
-114.7714746257
 10
711.5052699482
 20
-112.339077052
 10
707.4132446414
 20
-110.181217901
 10
703.3382144869
 20
-108.3050653639
 10
699.2937163251
 20
-106.7168518306
 10
695.293185572
 20
-105.421853187
 10
691.3499115886
 20
-104.4243712881
 10
687.4769935344
 20
-103.7277196686
 10
683.6872968538
 20
-103.334212535
 10
679.993410538
 20
-103.2451570786
 10
676.4076053059
 20
-103.4608491326
 10
672.9417928418
 20
-103.9805721896
 10
669.6074862263
 20
-104.8025997819
 10
666.4157616905
 20
-105.9242012166
 10
663.3772218224
 20
-107.3416506465
 10
660.5019603458
 20
-109.050239447
 10
657.7995285904
 20
-111.0442918581
 10
655.2789037624
 20
-113.3171838382
 10
652.9484591242
 20
-115.8613650687
 10
650.8159361785
 20
-118.6683840353
 10
648.888418952
 20
-121.7289161034
 10
647.1723104632
 20
-125.0327944933
 10
645.6733114517
 20
-128.5690440531
 10
644.3964014417
 20
-132.3259177175
 10
643.3458221998
 20
-136.29093553
 10
642.5250636444
 20
-140.4509261001
 10
641.9368522531
 20
-144.7920703575
 10
641.5831420049
 20
-149.2999474575
 10
641.4651078897
 20
-153.9595826859
  0
LWPOLYLINE
  5
110
330
1F
100
AcDbEntity
  8
0
  6
Continuous
 62
     7
370
    25
100
AcDbPolyline
 90
       98
 70
   128
 43
0.0
 10
655.960796904
 20
-162.3277658321
 10
656.0794309671
 20
-158.167888743
 10
656.4348355639
 20
-154.1624315979
 10
657.025520004
 20
-150.3281946759
 10
657.8490067516
 20
-146.6812600992
 10
658.901841817
 20
-143.2369243787
 10
660.1796092442
 20
-140.0096342556
 10
661.6769496325
 20
-137.0129261062
 10
663.3875826159
 20
-134.2593691658
 10
665.3043332052
 20
-131.7605128092
 10
667.4191618824
 20
-129.5268381083
 10
669.7231983209
 20
-127.5677138712
 10
672.2067785914
 20
-125.8913573457
 10
674.8594856949
 20
-124.5047997536
 10
677.670193256
 20
-123.4138567994
 10
680.6271121905
 20
-122.6231042769
 10
683.7178401528
 20
-122.1358588771
 10
686.9294135555
 20
-121.9541642764
 10
690.2483619439
 20
-122.0787825651
 10
693.6607644948
 20
-122.509191051
 10
697.1523084063
 20
-123.2435844511
 10
700.7083489296
 20
-124.2788824643
 10
704.313970795
 20
-125.610742691
 10
707.9540507714
 20
-127.2335788466
 10
711.6133210983
 20
-129.1405841921
 10
715.2764335243
 20
-131.3237600846
 10
718.9280236829
 20
-133.7739495255
 10
722.5527755358
 20
-136.4808755689
 10
726.1354856143
 20
-139.4331844262
 10
729.661126787
 20
-142.618493088
 10
733.1149112897
 20
-146.0234412629
 10
736.4823527499
 20
-149.633747415
 10
739.7493269479
 20
-153.4342686654
 10
742.9021310584
 20
-157.4090643074
 10
745.9275411255
 20
-161.5414626667
 10
748.8128675278
 20
-165.8141310284
 10
751.5460082037
 20
-170.2091483367
 10
754.1154994114
 20
-174.7080803614
 10
756.5105638118
 20
-179.2920570182
 10
758.7211556724
 20
-183.941851516
 10
760.7380030028
 20
-188.6379610008
 10
762.5526464444
 20
-193.3606883573
 10
764.1574747519
 20
-198.0902248257
 10
765.5457567177
 20
-202.8067330865
 10
766.7116694047
 20
-207.4904304649
 10
767.65032257
 20
-212.1216719064
 10
768.3577791759
 20
-216.6810323749
 10
768.8310719037
 20
-221.1493883282
 10
769.0682155992
 20
-225.5079979285
 10
769.0682155992
 20
-229.7385796524
 10
768.8310719037
 20
-233.82338897
 10
768.3577791759
 20
-237.7452927713
 10
767.65032257
 20
-241.4878412289
 10
766.7116694047
 20
-245.035336794
 10
765.5457567176
 20
-248.3729000372
 10
764.1574747519
 20
-251.4865320585
 10
762.5526464444
 20
-254.3631732031
 10
760.7380030028
 20
-256.9907578383
 10
758.7211556724
 20
-259.3582649611
 10
756.5105638118
 20
-261.4557644237
 10
754.1154994114
 20
-263.2744585845
 10
751.5460082037
 20
-264.8067192082
 10
748.8128675278
 20
-266.0461194612
 10
745.9275411255
 20
-266.9874608681
 10
742.9021310584
 20
-267.626795116
 10
739.7493269479
 20
-267.9614406147
 10
736.4823527499
 20
-267.9899937448
 10
733.1149112897
 20
-267.7123347445
 10
729.661126787
 20
-267.1296282122
 10
726.1354856143
 20
-266.2443182216
 10
722.5527755358
 20
-265.0601180704
 10
718.9280236829
 20
-263.5819947056
 10
715.2764335243
 20
-261.8161478903
 10
711.6133210983
 20
-259.7699841998
 10
707.9540507714
 20
-257.4520859555
 10
704.313970795
 20
-254.8721752283
 10
700.7083489296
 20
-252.0410730603
 10
697.1523084063
 20
-248.970654078
 10
693.6607644948
 20
-245.6737966856
 10
690.2483619439
 20
-242.1643290486
 10
686.9294135555
 20
-238.4569710941
 10
683.7178401528
 20
-234.5672727697
 10
680.6271121905
 20
-230.5115488219
 10
677.670193256
 20
-226.3068103663
 10
674.8594856949
 20
-221.9706935375
 10
672.2067785914
 20
-217.5213855162
 10
669.7231983209
 20
-212.9775482465
 10
667.4191618824
 20
-208.358240161
 10
665.3043332052
 20
-203.6828362432
 10
663.3875826159
 20
-198.9709467618
 10
661.6769496325
 20
-194.242335019
 10
660.1796092442
 20
-189.5168344556
 10
658.901841817
 20
-184.8142654633
 10
657.8490067516
 20
-180.1543522506
 10
657.025520004
 20
-175.556640113
 10
656.4348355639
 20
-171.0404134531
 10
656.0794309671
 20
-166.6246148948
 10
655.960796904
 20
-162.3277658321
  0
SPLINE
  5
111
330
1F
100
AcDbEntity
  8
0
  6
Continuous
 62
     7
370
    25
100
AcDbSpline
210
0.0
220
0.0
230
1.0
 70
     8
 71
     3
 72
    17
 73
    13
 74
     0
 42
0.00000001
 43
0.00000001
 40
0.0
 40
0.0
 40
0.0
 40
0.0
 40
0.0718210546274319
 40
0.1792799268285406
 40
0.286561408431894
 40
0.3936572214075695
 40
0.5008488327776365
 40
0.608267987882984
 40
0.7156918316542533
 40
0.8228906092555899
 40
0.9299858542600226
 40
1.0
 40
1.0
 40
1.0
 40
1.0
 10
631.0216430226387
 20
-164.0760316790578
 30
0.0
 10
631.2984405172715
 20
-164.2363138064395
 30
0.0
 10
631.9893832337422
 20
-164.636410522061
 30
0.0
 10
633.4604509907285
 20
-164.447568482055
 30
0.0
 10
635.1458083249055
 20
-163.6016124333534
 30
0.0
 10
636.7395478857841
 20
-162.0939277884726
 30
0.0
 10
638.0571943518158
 20
-160.1325216205271
 30
0.0
 10
638.9738621413089
 20
-157.939304149666
 30
0.0
 10
639.407260617428
 20
-155.7664086836099
 30
0.0
 10
639.2991332532575
 20
-153.9010165803559
 30
0.0
 10
638.800945013366
 20
-152.5951119994102
 30
0.0
 10
638.1790079648284
 20
-152.2443788463738
 30
0.0
 10
637.9331464044991
 20
-152.1057284789973
 30
0.0
  0
LWPOLYLINE
  5
112
330
1F
100
AcDbEntity
  8
0
  6
Continuous
 62
     7
370
    25
100
AcDbPolyline
 90
      110
 70
   128
 43
0.0
 10
496.5082177465
 20
-405.0322805843
 10
500.7204032179
 20
-402.7369169592
 10
505.1546644633
 20
-400.58545759
 10
509.7962713126
 20
-398.5850494082
 10
514.6298048147
 20
-396.7423375686
 10
519.6392084575
 20
-395.0634433746
 10
524.8078415057
 20
-393.553943944
 10
530.1185342803
 20
-392.2188536821
 10
535.5536451938
 20
-391.0626076244
 10
541.0951193543
 20
-390.089046704
 10
546.7245485422
 20
-389.3014049924
 10
552.4232323595
 20
-388.7022989562
 10
558.172240352
 20
-388.2937187654
 10
563.952474893
 20
-388.0770216823
 10
569.7447346249
 20
-388.0529275527
 10
575.5297782432
 20
-388.2215164151
 10
581.2883884149
 20
-388.582228234
 10
587.001435616
 20
-389.1338647612
 10
592.6499416783
 20
-389.8745935156
 10
598.2151428327
 20
-390.8019538708
 10
603.6785520407
 20
-391.9128652288
 10
609.0220204063
 20
-393.2036372539
 10
614.2277974649
 20
-394.6699821313
 10
619.2785901487
 20
-396.3070288106
 10
624.1576202323
 20
-398.1093391876
 10
628.8486800685
 20
-400.0709261683
 10
633.3361864282
 20
-402.1852735581
 10
637.6052322666
 20
-404.4453577075
 10
641.6416362428
 20
-406.8436708444
 10
645.4319898286
 20
-409.3722460136
 10
648.9637018506
 20
-412.0226835428
 10
652.2250403167
 20
-414.786178945
 10
655.2051713885
 20
-417.6535521664
 10
657.8941953702
 20
-420.6152780815
 10
660.2831795945
 20
-423.6615181347
 10
662.3641880963
 20
-426.7821530229
 10
664.1303079744
 20
-429.9668163108
 10
665.5756723562
 20
-433.2049288672
 10
666.6954798867
 20
-436.4857340078
 10
667.4860106778
 20
-439.798333228
 10
667.9446386658
 20
-443.1317224062
 10
668.0698403346
 20
-446.4748283588
 10
667.8611997768
 20
-449.8165456241
 10
667.3194100754
 20
-453.1457733533
 10
666.4462710013
 20
-456.4514521867
 10
665.2446830347
 20
-459.7226009918
 10
663.7186377299
 20
-462.9483533411
 10
661.8732044561
 20
-466.1179936097
 10
659.7145135569
 20
-469.2209925714
 10
657.2497359865
 20
-472.2470423758
 10
654.487059488
 20
-475.1860907896
 10
651.4356613949
 20
-478.0283745896
 10
648.105678145
 20
-480.764451995
 10
644.5081716075
 20
-483.3852340316
 10
640.6550923375
 20
-485.8820147251
 10
636.5592398767
 20
-488.2465000212
 10
632.2342202353
 20
-490.4708353375
 10
627.6944006934
 20
-492.5476316557
 10
622.9548620751
 20
-494.4699900674
 10
618.0313486509
 20
-496.2315246912
 10
612.9402158374
 20
-497.8263838862
 10
607.6983758658
 20
-499.2492696906
 10
602.3232416013
 20
-500.4954554209
 10
596.8326686993
 20
-501.5608013734
 10
591.2448962909
 20
-502.4417685759
 10
585.5784863941
 20
-503.135430544
 10
579.8522622528
 20
-503.6394830024
 10
574.0852458076
 20
-503.9522515396
 10
568.2965945072
 20
-504.0726971699
 10
562.5055376691
 20
-504.0004197849
 10
556.7313126017
 20
-503.7356594831
 10
550.9931007001
 20
-503.2792957713
 10
545.309963727
 20
-502.6328446441
 10
539.700780492
 20
-501.7984535469
 10
534.1841841377
 20
-500.7788942432
 10
528.7785002424
 20
-499.5775536064
 10
523.5016859444
 20
-498.1984223693
 10
518.3712702901
 20
-496.6460818672
 10
513.4042960044
 20
-494.9256888191
 10
508.6172628763
 20
-493.0429581977
 10
504.0260729485
 20
-491.0041442447
 10
499.6459776922
 20
-488.8160196952
 10
495.4915273433
 20
-486.4858532787
 10
491.5765225681
 20
-484.0213855739
 10
487.9139686188
 20
-481.4308032945
 10
484.5160321313
 20
-478.7227120944
 10
481.3940007088
 20
-475.9061079803
 10
478.5582454258
 20
-472.9903474276
 10
476.0181863761
 20
-469.9851162998
 10
473.7822613805
 20
-466.9003976725
 10
471.8578979569
 20
-463.7464386706
 10
470.2514886471
 20
-460.5337164288
 10
468.9683697812
 20
-457.2729032874
 10
468.0128037512
 20
-453.9748313397
 10
467.3879648513
 20
-450.6504564489
 10
467.0959287334
 20
-447.3108218541
 10
467.1376655122
 20
-443.9670214857
 10
467.5130365423
 20
-440.6301631122
 10
468.2207948788
 20
-437.3113314415
 10
469.2585894198
 20
-434.0215512987
 10
470.6229727162
 20
-430.7717510025
 10
472.3094124238
 20
-427.5727260627
 10
474.3123063596
 20
-424.4351033185
 10
476.6250011113
 20
-421.3693056371
 10
479.2398141395
 20
-418.3855172901
 10
482.1480592983
 20
-415.4936501223
 10
485.3400756898
 20
-412.7033106255
 10
488.8052597565
 20
-410.0237680271
 10
492.5321005055
 20
-407.463923498
 10
496.5082177465
 20
-405.0322805843
  0
LWPOLYLINE
  5
113
330
1F
100
AcDbEntity
  8
0
  6
Continuous
 62
     7
370
    25
100
AcDbPolyline
 90
       98
 70
   128
 43
0.0
 10
511.0039067608
 20
-413.4004637305
 10
507.4608693425
 20
-415.5827876692
 10
504.1699607806
 20
-417.8929301567
 10
501.1449842893
 20
-420.3212016525
 10
498.3986276712
 20
-422.8574171419
 10
495.9424101005
 20
-425.490938856
 10
493.7866338071
 20
-428.2107208894
 10
491.9403408662
 20
-431.005355531
 10
490.4112752718
 20
-433.8631211121
 10
489.2058504566
 20
-436.7720311704
 10
488.329122391
 20
-439.7198847265
 10
487.7847683773
 20
-442.694317458
 10
487.5750716254
 20
-445.6828535603
 10
487.7009116763
 20
-448.6729580745
 10
488.1617607132
 20
-451.652089463
 10
488.9556857749
 20
-454.6077522136
 10
490.079356864
 20
-457.5275492494
 10
491.5280609133
 20
-460.3992339271
 10
493.2957215546
 20
-463.210761403
 10
495.3749246049
 20
-465.9503391539
 10
497.756949164
 20
-468.6064764386
 10
500.431804193
 20
-471.1680324942
 10
503.3882704205
 20
-473.6242632646
 10
506.6139473996
 20
-475.9648664642
 10
510.0953055201
 20
-478.1800247897
 10
513.8177427561
 20
-480.2604470974
 10
517.7656459122
 20
-482.1974073731
 10
521.9224561107
 20
-483.9827813322
 10
526.2707382449
 20
-485.6090804959
 10
530.7922541084
 20
-487.0694836004
 10
535.4680388924
 20
-488.3578652074
 10
540.2784807306
 20
-489.4688213968
 10
545.203402958
 20
-490.3976924323
 10
550.2221487395
 20
-491.1405823059
 10
555.3136677109
 20
-491.6943750793
 10
560.4566042724
 20
-492.0567479531
 10
565.6293871607
 20
-492.2261810096
 10
570.8103199266
 20
-492.2019635877
 10
575.9776719377
 20
-491.9841972637
 10
581.1097695239
 20
-491.5737954252
 10
586.1850868843
 20
-490.97247944
 10
591.1823363742
 20
-490.1827714366
 10
596.0805577925
 20
-489.2079837246
 10
600.8592062962
 20
-488.0522049025
 10
605.498238573
 20
-486.7202827083
 10
609.9781969093
 20
-485.2178036865
 10
614.2802908029
 20
-483.5510697565
 10
618.3864757769
 20
-481.7270717794
 10
622.2795290645
 20
-479.7534602367
 10
625.9431218474
 20
-477.6385131411
 10
629.3618877441
 20
-475.3911013156
 10
632.5214872625
 20
-473.0206511866
 10
635.4086679441
 20
-470.5371052456
 10
638.0113199498
 20
-467.9508803474
 10
640.3185268526
 20
-465.272824018
 10
642.3206114248
 20
-462.5141689564
 10
644.0091762281
 20
-459.6864859206
 10
645.3771388349
 20
-456.8016351959
 10
646.4187615345
 20
-453.8717168488
 10
647.1296753993
 20
-450.909019975
 10
647.5068986097
 20
-447.925971155
 10
647.5488489602
 20
-444.9350823321
 10
647.2553504967
 20
-441.9488983334
 10
646.6276342535
 20
-438.9799442524
 10
645.6683330909
 20
-436.0406729143
 10
644.3814706512
 20
-433.1434126446
 10
642.7724444828
 20
-430.3003155597
 10
640.8480034005
 20
-427.5233065969
 10
638.6162191791
 20
-424.8240334967
 10
636.0864526972
 20
-422.2138179487
 10
633.2693146745
 20
-419.7036081039
 10
630.176621167
 20
-417.3039326549
 10
626.8213440061
 20
-415.0248566744
 10
623.21755639
 20
-412.875939399
 10
619.3803738567
 20
-410.8661941347
 10
615.325890883
 20
-409.0040504515
 10
611.0711133796
 20
-407.2973188272
 10
606.6338873621
 20
-405.7531578873
 10
602.0328240983
 20
-404.3780443795
 10
597.2872220466
 20
-403.1777460076
 10
592.4169859112
 20
-402.1572972402
 10
587.442543155
 20
-401.3209781941
 10
582.3847583197
 20
-400.672296682
 10
577.2648455124
 20
-400.2139734995
 10
572.104279427
 20
-399.9479310134
 10
566.9247052708
 20
-399.8752850983
 10
561.7478479781
 20
-399.9963404565
 10
556.5954210873
 20
-400.3105893396
 10
551.4890356674
 20
-400.8167136787
 10
546.4501096735
 20
-401.5125906124
 10
541.4997781123
 20
-402.395301391
 10
536.6588043948
 20
-403.4611436187
 10
531.9474932471
 20
-404.7056467828
 10
527.3856055455
 20
-406.1235910046
 10
522.9922754323
 20
-407.7090289333
 10
518.7859300608
 20
-409.455310691
 10
514.7842123053
 20
-411.3551117654
 10
511.0039067608
 20
-413.4004637305
  0
SPLINE
  5
114
330
1F
100
AcDbEntity
  8
0
  6
Continuous
 62
     7
370
    25
100
AcDbSpline
210
0.0
220
0.0
230
1.0
 70
     8
 71
     3
 72
    14
 73
    10
 74
     0
 42
0.00000001
 43
0.00000001
 40
0.0
 40
0.0
 40
0.0
 40
0.0
 40
0.1429406819774638
 40
0.2858730104549109
 40
0.4290223229854821
 40
0.5723152178502925
 40
0.7153715681492288
 40
0.8581803353998737
 40
1.0
 40
1.0
 40
1.0
 40
1.0
 10
496.508217746481
 20
-402.5826581486307
 30
0.0
 10
497.0679594307665
 20
-402.2010110492659
 30
0.0
 10
498.1874100878508
 20
-401.4377391541172
 30
0.0
 10
499.7219135473683
 20
-399.6319253048551
 30
0.0
 10
500.9089371929743
 20
-397.5688266658699
 30
0.0
 10
501.6001116019221
 20
-395.4075193041073
 30
0.0
 10
501.6913799094385
 20
-393.4180917706819
 30
0.0
 10
501.2101807662846
 20
-391.7610221547681
 30
0.0
 10
500.4640930530117
 20
-391.1574950953529
 30
0.0
 10
500.0923455484823
 20
-390.8567802138958
 30
0.0
  0
SPLINE
  5
115
330
1F
100
AcDbEntity
  8
0
  6
Continuous
 62
     7
370
    25
100
AcDbSpline
210
0.0
220
0.0
230
1.0
 70
     8
 71
     3
 72
    10
 73
     6
 74
     0
 42
0.00000001
 43
0.00000001
 40
0.0
 40
0.0
 40
0.0
 40
0.0
 40
0.2954333296171651
 40
0.7249009336818032
 40
1.0
 40
1.0
 40
1.0
 40
1.0
 10
493.1349631815459
 20
-402.9039942538311
 30
0.0
 10
493.3943413430071
 20
-403.049855540824
 30
0.0
 10
494.0307741776624
 20
-403.4077534911542
 30
0.0
 10
495.2521036309229
 20
-403.2144544581469
 30
0.0
 10
496.1554894561738
 20
-402.760072309747
 30
0.0
 10
496.508217746481
 20
-402.5826581486307
 30
0.0
  0
LWPOLYLINE
  5
116
330
1F
100
AcDbEntity
  8
0
  6
Continuous
 62
     7
370
    25
100
AcDbPolyline
 90
       29
 70
   128
 43
0.0
 10
618.8376908918
 20
-154.7759907977
 10
618.961791395
 20
-153.4324671336
 10
619.3278699871
 20
-152.013029965
 10
619.9175699591
 20
-150.5888557985
 10
620.7013212918
 20
-149.2313586737
 10
621.6398234208
 20
-148.0086091649
 10
622.6860159306
 20
-146.9819210381
 10
623.7874383601
 20
-146.2027767231
 10
624.8888607896
 20
-145.7102457694
 10
625.9350532993
 20
-145.5290257354
 10
626.8735554283
 20
-145.6682037506
 10
627.657306761
 20
-146.120800848
 10
628.247006733
 20
-146.8641219192
 10
628.6130853252
 20
-147.860893742
 10
628.7371858284
 20
-149.0611340149
 10
628.6130853252
 20
-150.404657679
 10
628.247006733
 20
-151.8240948477
 10
627.657306761
 20
-153.2482690141
 10
626.8735554283
 20
-154.6057661389
 10
625.9350532993
 20
-155.8285156478
 10
624.8888607896
 20
-156.8552037746
 10
623.7874383601
 20
-157.6343480895
 10
622.6860159306
 20
-158.1268790433
 10
621.6398234208
 20
-158.3080990772
 10
620.7013212918
 20
-158.1689210621
 10
619.9175699591
 20
-157.7163239647
 10
619.3278699871
 20
-156.9730028934
 10
618.961791395
 20
-155.9762310707
 10
618.8376908918
 20
-154.7759907977
  0
LWPOLYLINE
  5
117
330
1F
100
AcDbEntity
  8
0
  6
Continuous
 62
     7
370
    25
100
AcDbPolyline
 90
       25
 70
   128
 43
0.0
 10
620.2519044541
 20
-153.9595826859
 10
620.3723748506
 20
-152.8333550402
 10
620.7255761816
 20
-151.6447857883
 10
621.2874383601
 20
-150.4748739605
 10
622.0196714071
 20
-149.4033471145
 10
622.8723748506
 20
-148.503228034
 10
623.7874383601
 20
-147.8358583469
 10
624.7025018695
 20
-147.4467181944
 10
625.555205313
 20
-147.3623268349
 10
626.2874383601
 20
-147.5884354001
 10
626.8493005385
 20
-148.1096349649
 10
627.2025018695
 20
-148.8904066402
 10
627.322972266
 20
-149.8775421268
 10
627.2025018695
 20
-151.0037697724
 10
626.8493005385
 20
-152.1923390243
 10
626.2874383601
 20
-153.3622508521
 10
625.555205313
 20
-154.4337776981
 10
624.7025018695
 20
-155.3338967786
 10
623.7874383601
 20
-156.0012664658
 10
622.8723748506
 20
-156.3904066182
 10
622.0196714071
 20
-156.4747979777
 10
621.2874383601
 20
-156.2486894125
 10
620.7255761816
 20
-155.7274898478
 10
620.3723748506
 20
-154.9467181724
 10
620.2519044541
 20
-153.9595826859
  0
LWPOLYLINE
  5
118
330
1F
100
AcDbEntity
  8
0
  6
Continuous
 62
     7
370
    25
100
AcDbPolyline
 90
       29
 70
   128
 43
0.0
 10
480.9518685604
 20
-393.6012400181
 10
481.0759690636
 20
-392.2577163541
 10
481.4420476558
 20
-390.8382791854
 10
482.0317476277
 20
-389.414105019
 10
482.8154989604
 20
-388.0566078942
 10
483.7540010894
 20
-386.8338583853
 10
484.8001935992
 20
-385.8071702585
 10
485.9016160287
 20
-385.0280259436
 10
487.0030384582
 20
-384.5354949898
 10
488.0492309679
 20
-384.3542749559
 10
488.9877330969
 20
-384.493452971
 10
489.7714844297
 20
-384.9460500684
 10
490.3611844016
 20
-385.6893711396
 10
490.7272629938
 20
-386.6861429624
 10
490.851363497
 20
-387.8863832354
 10
490.7272629938
 20
-389.2299068995
 10
490.3611844016
 20
-390.6493440681
 10
489.7714844297
 20
-392.0735182346
 10
488.9877330969
 20
-393.4310153594
 10
488.0492309679
 20
-394.6537648682
 10
487.0030384582
 20
-395.680452995
 10
485.9016160287
 20
-396.45959731
 10
484.8001935992
 20
-396.9521282637
 10
483.7540010894
 20
-397.1333482976
 10
482.8154989604
 20
-396.9941702825
 10
482.0317476277
 20
-396.5415731851
 10
481.4420476558
 20
-395.7982521139
 10
481.0759690636
 20
-394.8014802911
 10
480.9518685604
 20
-393.6012400181
  0
LWPOLYLINE
  5
119
330
1F
100
AcDbEntity
  8
0
  6
Continuous
 62
     7
370
    25
100
AcDbPolyline
 90
       25
 70
   128
 43
0.0
 10
482.3660821228
 20
-392.7848319063
 10
482.4865525192
 20
-391.6586042607
 10
482.8397538502
 20
-390.4700350088
 10
483.4016160287
 20
-389.300123181
 10
484.1338490757
 20
-388.2285963349
 10
484.9865525192
 20
-387.3284772545
 10
485.9016160287
 20
-386.6611075673
 10
486.8166795381
 20
-386.2719674149
 10
487.6693829816
 20
-386.1875760554
 10
488.4016160287
 20
-386.4136846205
 10
488.9634782072
 20
-386.9348841853
 10
489.3166795381
 20
-387.7156558607
 10
489.4371499346
 20
-388.7027913472
 10
489.3166795381
 20
-389.8290189929
 10
488.9634782072
 20
-391.0175882447
 10
488.4016160287
 20
-392.1875000725
 10
487.6693829816
 20
-393.2590269186
 10
486.8166795381
 20
-394.1591459991
 10
485.9016160287
 20
-394.8265156862
 10
484.9865525192
 20
-395.2156558386
 10
484.1338490757
 20
-395.3000471981
 10
483.4016160287
 20
-395.073938633
 10
482.8397538502
 20
-394.5527390682
 10
482.4865525192
 20
-393.7719673929
 10
482.3660821228
 20
-392.7848319063
  0
LWPOLYLINE
  5
11A
330
1F
100
AcDbEntity
  8
0
  6
Continuous
 62
     1
370
    25
100
AcDbPolyline
 90
       42
 70
   128
 43
0.0
 10
567.9260026463
 20
-196.4128045007
 10
568.0440367615
 20
-201.2087190177
 10
568.3977470097
 20
-206.1249812776
 10
568.985958401
 20
-211.1452599516
 10
569.8067169564
 20
-216.2528781789
 10
570.8572961983
 20
-221.4308689652
 10
572.1342062083
 20
-226.6620315461
 10
573.6332052198
 20
-231.9289885253
 10
575.3493137086
 20
-237.2142436016
 10
577.2768309351
 20
-242.5002396891
 10
579.4093538808
 20
-247.7694172404
 10
581.739798519
 20
-253.0042725775
 10
584.260423347
 20
-258.1874160374
 10
586.9628551024
 20
-263.3016297389
 10
589.838116579
 20
-268.3299247784
 10
592.8766564471
 20
-273.2555976653
 10
596.0683809829
 20
-278.0622858097
 10
599.4026875984
 20
-282.7340218771
 10
602.8685000625
 20
-287.2552868299
 10
606.4543052946
 20
-291.6110614807
 10
610.1481916104
 20
-295.7868763842
 10
613.937888291
 20
-299.7688599031
 10
617.8108063452
 20
-303.5437842888
 10
621.7540803286
 20
-307.0991096219
 10
625.7546110817
 20
-310.4230254693
 10
629.7991092435
 20
-313.5044901169
 10
633.874139398
 20
-316.3332672489
 10
637.9661647048
 20
-318.8999599522
 10
642.0615918673
 20
-321.1960419318
 10
646.1468162884
 20
-323.2138858342
 10
650.2082672633
 20
-324.9467885849
 10
654.2324530604
 20
-326.3889936553
 10
658.2060057391
 20
-327.5357101851
 10
662.1157255571
 20
-328.3831288973
 10
665.9486248183
 20
-328.9284347523
 10
669.6919710168
 20
-329.1698162988
 10
673.333329133
 20
-329.1064716915
 10
676.8606029414
 20
-328.7386113549
 10
680.2620751932
 20
-328.067457284
 10
683.5264465396
 20
-327.0952389852
 10
686.6428730673
 20
-325.8251860699
 10
689.2361504705
 20
-324.475222789
  0
LWPOLYLINE
  5
11B
330
1F
100
AcDbEntity
  8
0
  6
Continuous
 62
     1
370
    25
100
AcDbPolyline
 90
       15
 70
   128
 43
0.0
 10
588.7443178406
 20
-150.3994014505
 10
586.9628551024
 20
-151.5034612618
 10
584.260423347
 20
-153.4975136729
 10
581.739798519
 20
-155.770405653
 10
579.4093538808
 20
-158.3145868834
 10
577.2768309351
 20
-161.1216058501
 10
575.3493137086
 20
-164.1821379182
 10
573.6332052198
 20
-167.4860163081
 10
572.1342062083
 20
-171.0222658679
 10
570.8572961983
 20
-174.7791395323
 10
569.8067169564
 20
-178.7441573447
 10
568.985958401
 20
-182.9041479148
 10
568.3977470097
 20
-187.2452921722
 10
568.0440367615
 20
-191.7531692723
 10
567.9260026463
 20
-196.4128045007
  0
LWPOLYLINE
  5
11C
330
1F
100
AcDbEntity
  8
0
  6
Continuous
 62
     1
370
    25
100
AcDbPolyline
 90
       42
 70
   128
 43
0.0
 10
496.5082177465
 20
-320.1120361482
 10
500.7204032179
 20
-317.8166725231
 10
505.1546644633
 20
-315.6652131539
 10
509.7962713126
 20
-313.664804972
 10
514.6298048147
 20
-311.8220931324
 10
519.6392084575
 20
-310.1431989385
 10
524.8078415057
 20
-308.6336995079
 10
530.1185342803
 20
-307.298609246
 10
535.5536451938
 20
-306.1423631882
 10
541.0951193543
 20
-305.1688022679
 10
546.7245485422
 20
-304.3811605563
 10
552.4232323595
 20
-303.7820545201
 10
558.172240352
 20
-303.3734743293
 10
563.952474893
 20
-303.1567772461
 10
569.7447346249
 20
-303.1326831166
 10
575.5297782432
 20
-303.3012719789
 10
581.2883884149
 20
-303.6619837979
 10
587.001435616
 20
-304.2136203251
 10
592.6499416783
 20
-304.9543490795
 10
598.2151428327
 20
-305.8817094346
 10
603.6785520407
 20
-306.9926207927
 10
609.0220204063
 20
-308.2833928178
 10
614.2277974649
 20
-309.7497376952
 10
619.2785901487
 20
-311.3867843745
 10
624.1576202323
 20
-313.1890947515
 10
628.8486800685
 20
-315.1506817322
 10
633.3361864282
 20
-317.265029122
 10
637.6052322666
 20
-319.5251132714
 10
641.6416362428
 20
-321.9234264083
 10
645.4319898286
 20
-324.4520015775
 10
648.9637018506
 20
-327.1024391067
 10
652.2250403167
 20
-329.8659345089
 10
655.2051713885
 20
-332.7333077303
 10
657.8941953702
 20
-335.6950336454
 10
660.2831795945
 20
-338.7412736986
 10
662.3641880963
 20
-341.8619085868
 10
664.1303079744
 20
-345.0465718746
 10
665.5756723562
 20
-348.284684431
 10
666.6954798867
 20
-351.5654895717
 10
667.4860106778
 20
-354.8780887918
 10
667.9446386658
 20
-358.2114779701
 10
668.0724492557
 20
-361.1365437673
  0
LWPOLYLINE
  5
11D
330
1F
100
AcDbEntity
  8
0
  6
Continuous
 62
     1
370
    25
100
AcDbPolyline
 90
       15
 70
   128
 43
0.0
 10
467.0724492557
 20
-361.1365437673
 10
467.1376655122
 20
-359.0467770496
 10
467.5130365423
 20
-355.7099186761
 10
468.2207948788
 20
-352.3910870054
 10
469.2585894198
 20
-349.1013068625
 10
470.6229727162
 20
-345.8515065664
 10
472.3094124238
 20
-342.6524816266
 10
474.3123063596
 20
-339.5148588824
 10
476.6250011113
 20
-336.449061201
 10
479.2398141395
 20
-333.465272854
 10
482.1480592983
 20
-330.5734056862
 10
485.3400756898
 20
-327.7830661894
 10
488.8052597565
 20
-325.103523591
 10
492.5321005055
 20
-322.5436790619
 10
496.5082177465
 20
-320.1120361482
  0
ARC
  5
11E
330
1F
100
AcDbEntity
  8
0
  6
Continuous
 62
     1
370
    25
100
AcDbCircle
 10
562.9239524676
 20
-281.3494418422
 30
0.0
 40
134.0442458461368
100
AcDbArc
 50
16.4014753072
 51
43.5931481601
  0
ARC
  5
11F
330
1F
100
AcDbEntity
  8
0
  6
Continuous
 62
     1
370
    25
100
AcDbCircle
 10
567.5724492557
 20
-273.2663098477
 30
0.0
 40
134.0755143231289
100
AcDbArc
 50
256.4258035262
 51
283.5741964738
  0
ENDSEC
  0
SECTION
  2
OBJECTS
  0
DICTIONARY
  5
C
330
0
100
AcDbDictionary
281
     1
  3
ACAD_GROUP
350
D
  3
ACAD_LAYOUT
350
1A
  3
ACAD_MLINESTYLE
350
17
  3
ACAD_PLOTSETTINGS
350
19
  3
ACAD_PLOTSTYLENAME
350
E
  3
ACAD_SCALELIST
350
47
  3
DWGPROPS
350
120
  0
DICTIONARY
  5
D
102
{ACAD_REACTORS
330
C
102
}
330
C
100
AcDbDictionary
281
     1
  0
DICTIONARY
  5
1A
102
{ACAD_REACTORS
330
C
102
}
330
C
100
AcDbDictionary
281
     1
  3
Layout1
350
1E
  3
Layout2
350
26
  3
Model
350
22
  0
DICTIONARY
  5
17
102
{ACAD_REACTORS
330
C
102
}
330
C
100
AcDbDictionary
281
     1
  3
Standard
350
18
  0
DICTIONARY
  5
19
102
{ACAD_REACTORS
330
C
102
}
330
C
100
AcDbDictionary
281
     1
  0
ACDBDICTIONARYWDFLT
  5
E
102
{ACAD_REACTORS
330
C
102
}
330
C
100
AcDbDictionary
281
     1
  3
Normal
350
F
100
AcDbDictionaryWithDefault
340
F
  0
DICTIONARY
  5
47
102
{ACAD_REACTORS
330
C
102
}
330
C
100
AcDbDictionary
281
     1
  3
A0
350
48
  3
A1
350
49
  3
A2
350
4A
  3
A3
350
4B
  3
A4
350
4C
  3
A5
350
4D
  3
A6
350
4E
  3
A7
350
4F
  3
A8
350
50
  3
A9
350
51
  3
B0
350
52
  3
B1
350
53
  3
B2
350
54
  3
B3
350
55
  3
B4
350
56
  3
B5
350
57
  3
B6
350
58
  3
B7
350
59
  3
B8
350
5A
  3
B9
350
5B
  3
C0
350
5C
  3
C1
350
5D
  3
C2
350
5E
  3
C3
350
5F
  3
C4
350
60
  3
C5
350
61
  3
C6
350
62
  3
C7
350
63
  3
C8
350
64
  3
C9
350
65
  3
D0
350
66
  3
D1
350
67
  3
D2
350
68
  0
XRECORD
  5
120
102
{ACAD_REACTORS
330
C
102
}
330
C
100
AcDbXrecord
280
     1
  1
DWGPROPS COOKIE
  2

  3

  4

  6

  7

  8
b.kav
  9

300
=
301
=
302
=
303
=
304
=
305
=
306
=
307
=
308
=
309
=
 40
0.0
 41
2460665.489674665
 42
2460665.489674965
  1

 90
        0
  0
LAYOUT
  5
1E
102
{ACAD_REACTORS
330
1A
102
}
330
1A
100
AcDbPlotSettings
  1

  2
none_device
  4

  6

 40
0.0
 41
0.0
 42
0.0
 43
0.0
 44
0.0
 45
0.0
 46
0.0
 47
0.0
 48
0.0
 49
0.0
140
0.0
141
0.0
142
1.0
143
1.0
 70
   688
 72
     1
 73
     0
 74
     5
  7

 75
    16
147
1.0
148
0.0
149
0.0
100
AcDbLayout
  1
Layout1
 70
     1
 71
     1
 10
0.0
 20
0.0
 11
420.0
 21
297.0
 12
0.0
 22
0.0
 32
0.0
 14
1.0000000000E+20
 24
1.0000000000E+20
 34
1.0000000000E+20
 15
-1.0000000000E+20
 25
-1.0000000000E+20
 35
-1.0000000000E+20
146
0.0
 13
0.0
 23
0.0
 33
0.0
 16
1.0
 26
0.0
 36
0.0
 17
0.0
 27
1.0
 37
0.0
 76
     0
330
1B
  0
LAYOUT
  5
26
102
{ACAD_REACTORS
330
1A
102
}
330
1A
100
AcDbPlotSettings
  1

  2
none_device
  4

  6

 40
0.0
 41
0.0
 42
0.0
 43
0.0
 44
0.0
 45
0.0
 46
0.0
 47
0.0
 48
0.0
 49
0.0
140
0.0
141
0.0
142
1.0
143
1.0
 70
   688
 72
     1
 73
     0
 74
     5
  7

 75
    16
147
1.0
148
0.0
149
0.0
100
AcDbLayout
  1
Layout2
 70
     1
 71
     2
 10
0.0
 20
0.0
 11
0.0
 21
0.0
 12
0.0
 22
0.0
 32
0.0
 14
0.0
 24
0.0
 34
0.0
 15
0.0
 25
0.0
 35
0.0
146
0.0
 13
0.0
 23
0.0
 33
0.0
 16
1.0
 26
0.0
 36
0.0
 17
0.0
 27
1.0
 37
0.0
 76
     0
330
23
  0
LAYOUT
  5
22
102
{ACAD_REACTORS
330
1A
102
}
330
1A
100
AcDbPlotSettings
  1

  2
none_device
  4
Letter_(8.50_x_11.00_Inches)
  6

 40
6.35
 41
6.35
 42
6.35000508
 43
6.35000508
 44
215.9
 45
279.4
 46
0.0
 47
0.0
 48
0.0
 49
0.0
140
0.0
141
0.0
142
1.0
143
1.0
 70
  1712
 72
     1
 73
     0
 74
     0
  7

 75
     0
147
1.0
148
0.0
149
0.0
100
AcDbLayout
  1
Model
 70
     1
 71
     0
 10
0.0
 20
0.0
 11
279.4
 21
215.9
 12
0.0
 22
0.0
 32
0.0
 14
0.0
 24
0.0
 34
0.0
 15
279.4
 25
215.9
 35
0.0
146
0.0
 13
0.0
 23
0.0
 33
0.0
 16
1.0
 26
0.0
 36
0.0
 17
0.0
 27
1.0
 37
0.0
 76
     0
330
1F
331
29
  0
MLINESTYLE
  5
18
102
{ACAD_REACTORS
330
17
102
}
330
17
100
AcDbMlineStyle
  2
Standard
 70
     0
  3

 62
   256
 51
90.0
 52
90.0
 71
     2
 49
0.5
 62
   256
  6
BYLAYER
 49
-0.5
 62
   256
  6
BYLAYER
  0
ACDBPLACEHOLDER
  5
F
102
{ACAD_REACTORS
330
E
102
}
330
E
  0
SCALE
  5
48
102
{ACAD_REACTORS
330
47
102
}
330
47
100
AcDbScale
 70
     0
300
1:1
140
1.0
141
1.0
290
     1
  0
SCALE
  5
49
102
{ACAD_REACTORS
330
47
102
}
330
47
100
AcDbScale
 70
     0
300
1:2
140
1.0
141
2.0
290
     0
  0
SCALE
  5
4A
102
{ACAD_REACTORS
330
47
102
}
330
47
100
AcDbScale
 70
     0
300
1:4
140
1.0
141
4.0
290
     0
  0
SCALE
  5
4B
102
{ACAD_REACTORS
330
47
102
}
330
47
100
AcDbScale
 70
     0
300
1:5
140
1.0
141
5.0
290
     0
  0
SCALE
  5
4C
102
{ACAD_REACTORS
330
47
102
}
330
47
100
AcDbScale
 70
     0
300
1:8
140
1.0
141
8.0
290
     0
  0
SCALE
  5
4D
102
{ACAD_REACTORS
330
47
102
}
330
47
100
AcDbScale
 70
     0
300
1:10
140
1.0
141
10.0
290
     0
  0
SCALE
  5
4E
102
{ACAD_REACTORS
330
47
102
}
330
47
100
AcDbScale
 70
     0
300
1:16
140
1.0
141
16.0
290
     0
  0
SCALE
  5
4F
102
{ACAD_REACTORS
330
47
102
}
330
47
100
AcDbScale
 70
     0
300
1:20
140
1.0
141
20.0
290
     0
  0
SCALE
  5
50
102
{ACAD_REACTORS
330
47
102
}
330
47
100
AcDbScale
 70
     0
300
1:30
140
1.0
141
30.0
290
     0
  0
SCALE
  5
51
102
{ACAD_REACTORS
330
47
102
}
330
47
100
AcDbScale
 70
     0
300
1:40
140
1.0
141
40.0
290
     0
  0
SCALE
  5
52
102
{ACAD_REACTORS
330
47
102
}
330
47
100
AcDbScale
 70
     0
300
1:50
140
1.0
141
50.0
290
     0
  0
SCALE
  5
53
102
{ACAD_REACTORS
330
47
102
}
330
47
100
AcDbScale
 70
     0
300
1:100
140
1.0
141
100.0
290
     0
  0
SCALE
  5
54
102
{ACAD_REACTORS
330
47
102
}
330
47
100
AcDbScale
 70
     0
300
2:1
140
2.0
141
1.0
290
     0
  0
SCALE
  5
55
102
{ACAD_REACTORS
330
47
102
}
330
47
100
AcDbScale
 70
     0
300
4:1
140
4.0
141
1.0
290
     0
  0
SCALE
  5
56
102
{ACAD_REACTORS
330
47
102
}
330
47
100
AcDbScale
 70
     0
300
8:1
140
8.0
141
1.0
290
     0
  0
SCALE
  5
57
102
{ACAD_REACTORS
330
47
102
}
330
47
100
AcDbScale
 70
     0
300
10:1
140
10.0
141
1.0
290
     0
  0
SCALE
  5
58
102
{ACAD_REACTORS
330
47
102
}
330
47
100
AcDbScale
 70
     0
300
100:1
140
100.0
141
1.0
290
     0
  0
SCALE
  5
59
102
{ACAD_REACTORS
330
47
102
}
330
47
100
AcDbScale
 70
     0
300
1/128" = 1'-0"
140
0.0078125
141
12.0
290
     0
  0
SCALE
  5
5A
102
{ACAD_REACTORS
330
47
102
}
330
47
100
AcDbScale
 70
     0
300
1/64" = 1'-0"
140
0.015625
141
12.0
290
     0
  0
SCALE
  5
5B
102
{ACAD_REACTORS
330
47
102
}
330
47
100
AcDbScale
 70
     0
300
1/32" = 1'-0"
140
0.03125
141
12.0
290
     0
  0
SCALE
  5
5C
102
{ACAD_REACTORS
330
47
102
}
330
47
100
AcDbScale
 70
     0
300
1/16" = 1'-0"
140
0.0625
141
12.0
290
     0
  0
SCALE
  5
5D
102
{ACAD_REACTORS
330
47
102
}
330
47
100
AcDbScale
 70
     0
300
3/32" = 1'-0"
140
0.09375
141
12.0
290
     0
  0
SCALE
  5
5E
102
{ACAD_REACTORS
330
47
102
}
330
47
100
AcDbScale
 70
     0
300
1/8" = 1'-0"
140
0.125
141
12.0
290
     0
  0
SCALE
  5
5F
102
{ACAD_REACTORS
330
47
102
}
330
47
100
AcDbScale
 70
     0
300
3/16" = 1'-0"
140
0.1875
141
12.0
290
     0
  0
SCALE
  5
60
102
{ACAD_REACTORS
330
47
102
}
330
47
100
AcDbScale
 70
     0
300
1/4" = 1'-0"
140
0.25
141
12.0
290
     0
  0
SCALE
  5
61
102
{ACAD_REACTORS
330
47
102
}
330
47
100
AcDbScale
 70
     0
300
3/8" = 1'-0"
140
0.375
141
12.0
290
     0
  0
SCALE
  5
62
102
{ACAD_REACTORS
330
47
102
}
330
47
100
AcDbScale
 70
     0
300
1/2" = 1'-0"
140
0.5
141
12.0
290
     0
  0
SCALE
  5
63
102
{ACAD_REACTORS
330
47
102
}
330
47
100
AcDbScale
 70
     0
300
3/4" = 1'-0"
140
0.75
141
12.0
290
     0
  0
SCALE
  5
64
102
{ACAD_REACTORS
330
47
102
}
330
47
100
AcDbScale
 70
     0
300
1" = 1'-0"
140
1.0
141
12.0
290
     0
  0
SCALE
  5
65
102
{ACAD_REACTORS
330
47
102
}
330
47
100
AcDbScale
 70
     0
300
1-1/2" = 1'-0"
140
1.5
141
12.0
290
     0
  0
SCALE
  5
66
102
{ACAD_REACTORS
330
47
102
}
330
47
100
AcDbScale
 70
     0
300
3" = 1'-0"
140
3.0
141
12.0
290
     0
  0
SCALE
  5
67
102
{ACAD_REACTORS
330
47
102
}
330
47
100
AcDbScale
 70
     0
300
6" = 1'-0"
140
6.0
141
12.0
290
     0
  0
SCALE
  5
68
102
{ACAD_REACTORS
330
47
102
}
330
47
100
AcDbScale
 70
     0
300
1'-0" = 1'-0"
140
12.0
141
12.0
290
     0
  0
ENDSEC
  0
EOF
